Cifra Club

Caminhos

Suellen Lima

Cifra: Original
exibições 514
Tom: A
Intro: D  G  D  G  D9
E|--------------------------------|
B|-3-3-3-2---3-3-3-2---3p-2-------|
G|-2-2-2-2---2-2-2-2--------4-2---|
D|--------------------------------|
A|--------------------------------|
E|--------------------------------|

E|--------------------------------|
B|-3-3-3-2---3-3-3-2---3p-2-------|
G|-2-2-2-2---2-2-2-2--------4-2---|
D|--------------------------------|
A|--------------------------------|
E|--------------------------------|

E|--------------------------------|
B|-3-3-3-2---3-3-3-2---3p-2-------|
G|-2-2-2-2---2-2-2-2--------4-2---|
D|--------------------------------|
A|--------------------------------|
E|--------------------------------|

E|-------------------------------0----|
B|-3-3-3-2---3-3-3-2---3p-2------3----|
G|-2-2-2-2---2-2-2-2--------4-2--2----|
D|-------------------------------0----|
A|------------------------------------|
E|------------------------------------|


D                    G
Por caminhos que trilhei
D                      A
Os meus pés feridos estão

D                  G
E os ombros tão cansados
D      A       D
com o peso da cruz

D                G
E as lágrimas insistem
D                   A
Em meu rosto vem molhar

D              G
Só tu Jesus querido
D       A           D
É quem pode as enxugar

A                  D
Não retires teu Espírito
G       D         A
Do meu pobre coração
D                 G
Se perder tudo na vida
D      A          D
Tua presença eu terei
E|--------------------|
B|-3-3-3-2---3-3-3-2--|
G|-2-2-2-2---2-2-2-2--|
D|--------------------|
A|--------------------|
E|--------------------|  D5


               G
E quando tu voltares
D                  A
Com os santos subirei
D                 G
Muito além das estrelas
D     A           D
Eu então descansarei

A                  D
Não retires teu espírito
G       D         A
Do meu pobre coração
D                 G
Se perder tudo na vida
D       A          Bm  G D E B
Tua presença eu terei.

B                  E
Não retires teu espírito
A       E         B
Do meu pobre coração
E                 A
Se perder tudo na vida
E       B          E    E F#m G#m A B
Tua presença eu terei.

B                  E
Não retires teu espírito
A       E         B
Do meu pobre coração
E                 A
Se perder tudo na vida
E       B          C#m A E B   C#m A E B E
Tua presença eu terei.
Acordes para:
    Colaboração e revisão:
    • Allan

    0 comentários

      mostrar mais comentários

      Conseguiu tocar?

      0tocaram0ainda não

      Grave um vídeo tocando Caminhos e mande pra gente!

      00:00 / 00:00
      outros vídeos desta música
      repetirqualidadeautomática
      Outro vídeos desta música
        00:00 / 00:00
        automática
        OK