Enviar cifraEntrar

Declaração de Amor

Suellen Lima

Cifra: Principal
exibições 24.892
Tom: A
Intro: A/C#  D/E  E/G#


    A/C#            D/E            A/C#            D/E           E/G#
E|-----5-------5---------0h2----------5-------5---------0h2---------|
B|-----5-------5-------3-----3--------5-------5-------3-----3---5---|
G|---2-------2-------2--------------2-------2-------2-----------4---|
D|-----------------2------------------------------2-------------2---|
A|-0-------4----------------------0-------4-------------------------|
E|--------------------------------------------------------------4---|


       A/C#          E/G#              F#m                       D
Eu te amo, quero que quando escutar essa canção abra bem seu coração
                 E/G#
Saiba que é a declaração de um filho

    D/E
E|-------0h2---|
B|-----3-----3-|
G|---2---------|
D|-2-----------|

  imperfeito.

      A/C#   E/G#                  F#m                    D           E/G#
Eu te amo, levanto a minha voz pra te falar o que sinto aqui bem dentro do

    D/E
E|-------0h2---|
B|-----3-----3-|
G|---2---------|
D|-2-----------|

  meu peito
       Bm7                               A/C#
Uma certeza de um amor vem de um coração adorador
      D                       A/C#
Dependente que reconhece seu valor
     Bm7                    A/C#
Me arrependo do que fiz
         D                   E        A
Mas te aceitei e hoje sou feliz de verdade.

Refrão:
                 A
Eu sou quero te amar, amar, amar e continuar te amando
      E/G#                            F#m
E te falar que pra mim o mundo é só engano
   D                A/C#
Felicidade eu tenho aqui
          Bm            A/C#
É ao seu lado, juntinho de Ti,
     D          E               A
Meu amado, meu Senhor Jesus Cristo
  • 1
  • 2
  • 3
  • 4
  • 5
  • 6
  • 7
  • 8
  • 9
  • 10
  • 11
  • 12
    Acordes para:

      0 comentários

        mostrar mais comentários

        Conseguiu tocar?

        8tocaram0ainda não

        Grave um vídeo tocando Declaração de Amor e mande pra gente!

        00:00 / 00:00
        outros vídeos desta música
        repetirqualidadeautomática
        • automática
        Outro vídeos desta música
          00:00 / 00:00
          automática
          • automática
          Acordes para:violão e guitarra
          dificuldadeexibiçõescontribuições
          fecharplay/pause subir/descer velocidade
            Acordes para:violão e guitarra
            acordes
            fechar
            OK