Cifra Club

Aprenda

Your Song

Sugar Kane

Cifra: Principal (violão e guitarra)
tom: D
E|------------------------------------------------------
B|------------------------------------------------------
G|------------------------------------------------------
D|-----9-9----7-7----6-6----6---------------------------
A|-7-7----7-7----7-7----7-7---7-------------------------
E|------------------------------------------------------

E|---------------------------------------
B|---------------------------------------
G|---------------------------------------
D|-----6-6----6-6----6-6----6-6h7--------
A|-4-4----4-4----4-4----4-4--------------
E|---------------------------------------

E|--------------------------------------------------------------
B|--------------------------------------------------------------
G|--------------------------------------------------------------
D|--7-7---6-6---------7-7---6-6---------------------------------
A|------------7-7--------------7-7-------9-9--9-9--9-9--9-9-----
E|--------------------------------------------------------------

Compositor não encontrado.
Colaboração e revisão:
  • Marcos Rolemberg
513 exibições
    • ½ Tom
    • A
    • Bb
    • B
    • C
    • Db
    • D
    • Eb
    • E
    • F
    • F#
    • G
    • Ab
  • Adicionar à lista

    0 comentários

    Ver todos os comentários

    Conseguiu tocar?

    0 Tocaram 0 Ainda não

    Grave um vídeo tocando Your Song e nos envie!

    00:00 / 00:00
    Outros vídeos desta música
    Repetir Qualidade Automático
    Outros vídeos desta música
    00:00 / 00:00
    Automático

    Cifra Club Pro

    Aproveite o Cifra Club com benefícios exclusivos e sem anúncios
    Cifra Club Pro
    Aproveite o Cifra Club com benefícios exclusivos e sem anúncios
    OK