Cifra Club

Count Your Last Blessings

Sum 41

Cifra: Principal (violão e guitarra)
Tom: G
Album: Undwerclass Hero (2007)
Tuning : Standard EADGBe
Tabbed by : NOviz

This is the updated version. Thanks to "Gitarrenspieler" for the correction ns in Guitar 2 Interlude Riff. 

This is an awesome song from a mindblowing album. If u haven't got it, get it! Sum41 is 
in action.

the song starts with the piano which continues throughout the verse

VERSE
e|---------------------------------------------------------------------|
B|---------------------------------------------------------------------|
G|---------------------------------------------------------------------|
D|---------------------------------------------------------------------|
A|-9999999999999999-7777777777777777-2222222222222222-5555555555555555-|
E|-7777777777777777-5555555555555555-0000000000000000-3333333333333333-|
   ................ ................ ................ ................

PRE-CHORUS:
e|-----------------|
B|-----------------|
G|---44------------|
D|-----22445544224-|
A|-22--------------|
E|-----------------|
   ........

CHORUS:
e|-------------------------------------------------------------------------|
B|-------------------------------------------------------------------------|
G|-44444444-77777777-------------------44444444-77777777-------------------|
D|-44444444-77777777-55555555-44444444-44444444-77777777-55555555-44444444-|
A|-22222222-55555555-55555555-44444444-22222222-55555555-55555555-44444444-|
E|-------------------33333333-22222222-------------------33333333-22222222-|

e|------------------------------|
B|------------------------------|
G|-44444444-------------------7-|
D|-44444444-44444444-55555555-7-|
A|-22222222-44444444-55555555-5-|
E|----------22222222-33333333---|

INTERLUDE:
Guitar 1
e|--------------------------------------|
B|--------------------------------------|
G|-4---------7---------4---------7------|
D|-4----5----7----4----4----5----7----4-|
A|-2----5----5----4----2----5----5----4-|
E|------3---------2---------3---------2-|

e|---------------------------------------------------------------------|
B|---------------------------------------------------------------------|
G|---------------------------------------------------------------------|
D|-4444444444444444------------------7777777777777777------------------|
A|-2222222222222222-5555555555555555-5555555555555555-4444444444444444-|
E|------------------3333333333333333------------------2222222222222222-|
   ................ ................ ................ ................

Guitar 2
e|---------------------------------------------|
B|------------10-8-7---------------------------|
G|---11-9-11---------9-----11-9-----11-9-------|
D|-9--------------------12------12-------12-11-|
A|---------------------------------------------|
E|---------------------------------------------|

       Guitar 1                                Guitar 2
e|---------------------------   ||   e|-------------------------|
B|---------------------------   ||   B|-------------------------|
G|-4444444444444444444444-44-   ||   G|-44----44-------44----44-|
D|-xxxxxxxxxxxxxxxxxxxxxx-44-   ||   D|-44----44-------44----44-|
A|-2222222222222222222222-22-   ||   A|-22----22-------22----22-|
E|---------------------------   ||   E|-------------------------|

CHORUS:
e|-------------------------------------------------------------------------|
B|-------------------------------------------------------------------------|
G|-44444444-77777777-------------------44444444-77777777-------------------|
D|-44444444-77777777-55555555-44444444-44444444-77777777-55555555-44444444-|
A|-22222222-55555555-55555555-44444444-22222222-55555555-55555555-44444444-|
E|-------------------33333333-22222222-------------------33333333-22222222-|

e|-------------------------------------|
B|-------------------------------------|
G|-44444444-------------------7777xxxx-|
D|-44444444-44444444-55555555-7777xxxx-|
A|-22222222-44444444-55555555-5555xxxx-|
E|----------22222222-33333333----------|

e|-------------------------------------------------------------------------|
B|-------------------------------------------------------------------------|
G|-44444444-77777777-------------------44444444-77777777-------------------|
D|-44444444-77777777-55555555-44444444-44444444-77777777-55555555-44444444-|
A|-22222222-55555555-55555555-44444444-22222222-55555555-55555555-44444444-|
E|-------------------33333333-22222222-------------------33333333-22222222-|

e|------------------------------|
B|------------------------------|
G|-44444444-------------------7-|
D|-44444444-44444444-55555555-7-|
A|-22222222-44444444-55555555-5-|
E|----------22222222-33333333---|

       Guitar 1                                Guitar 2
e|---------------------------   ||   e|-------------------------|
B|---------------------------   ||   B|-------------------------|
G|-4444444444444444444444-44-   ||   G|-44----44-------44----44-|
D|-xxxxxxxxxxxxxxxxxxxxxx-44-   ||   D|-44----44-------44----44-|
A|-2222222222222222222222-22-   ||   A|-22----22-------22----22-|
E|---------------------------   ||   E|-------------------------|

. : Palm Mute
x : Dead Note
exibições 1.751
Acordes para:
    Composição: Deryck Whibley

    0 comentários

    mostrar mais comentários

    Conseguiu tocar?

    0 tocaram 0 ainda não

    Grave um vídeo tocando Count Your Last Blessings e mande pra gente!

    00:00 / 00:00
    outros vídeos desta música
    repetir qualidade Automático
    Outros vídeos desta música
    00:00 / 00:00
    Automático
    OK