Cifra Club

Intro

Sum 41

Cifra: Principal (violão e guitarra)
Selo Cifra Club: esta cifra foi revisada para atender aos critérios oficiais da nossa Equipe de Qualidade.
tom: Ebm
{   (Ebm)                       (B)               (C#)
{    Em                          C                 D
{eb|--------------------------------------------------------|
{Bb|--------------------------------------------------------|
{Gb|---------------------------------9--9--9-------2--0-----|
{Db|-----9-10-9----------------------9--10-9-------0--0--4--|
{Ab|-7---7--7-7-------9----10--------7--7--7-------------5--|
{Eb|-0----------------0----0-----8--------------------------|
{
{Guitar 2
{eb|-----------------------------------------------2--------|
{Bb|---------------------------------3--5--3-------3-----3--|
{Gb|-----------------------------4-----------------2-----2--|
{Db|-----------------------------5-----------------0-----0--|
{Ab|-----------------------------3--------------------------|
{Eb|-0------------------------------------------------------|


{Guitar 1
{   (Ebm)                     (B)                 (C#)
{    Em                        C                   D
{eb|-----------------------------------------------------------|
{Bb|-----0-1-0-------0----0------------------------10---8--7---|
{Gb|-----0-2-0-------X----X--------9--9--9---------7----7--7---|
{Db|-2---2-2-2-------7----9--------9--10-9---------0----0--0---|
{Ab|-2---------------9----10-------7--7--7---------------------|
{Eb|-0---------------0----0----8-------------------------------|
{
{Guitar 2
{eb|-0---------------0-------------------------------------2---|
{Bb|-0---------------0-------------3-5-3-----------3-------3---|
{Gb|-0---------------0---------4-------------------2-------2---|
{Db|-2---------------2---------5-------------------0-------0---|
{Ab|-2---------------2---------3-------------------------------|
{Eb|-0---------------0-----------------------------------------|


Repeat all of the above, and this time add in
the parts written below where they are needed.

Guitar 3 (Clean)
E|------------------------------|-----------------------------|
B|------------------------------|-----------12----------------|
G|-----------9-11-9-11b12r11----|----9/12------12-9-----------|
D|---9-10-12--------------------|-----------------------------|
A|------------------------------|-----------------------------|
E|------------------------------|-----------------------------|

E|---------------------|--------------------------------------|
B|---------------------|--------------------------------------|
G|-12\11/12---12/14----|-------------9-11-9-11b12r11----------|
D|---------------------|-----9-10-12--------------------------|
A|---------------------|--------------------------------------|
E|---------------------|--------------------------------------|

E|---------------------|--------------------------------------|
B|-------12------------|--------------------------------------|
G|-9/12-----12-9-------|-----12\11/12---12/14-----------------|
D|---------------------|--------------------------------------|
A|---------------------|--------------------------------------|
E|---------------------|--------------------------------------|
Outros vídeos desta música
18 exibições
    • ½ Tom
    • Am
    • Bbm
    • Bm
    • Cm
    • C#m
    • Dm
    • Ebm
    • Em
    • Fm
    • F#m
    • Gm
    • G#m
  • Adicionar à lista

Afinação da cifra

Afinador online

    0 comentários

    Ver todos os comentários

    Entre para o Cifra Club PRO

    Tenha acesso a benefícios exclusivos no App e no Site

    • Chega de anúncios

    • Mais recursos no app do Afinador

    • Atendimento Prioritário

    • Aumente seu limite de lista

    • Ajude a produzir mais conteúdo

    Cifra Club Pro

    Aproveite o Cifra Club com benefícios exclusivos e sem anúncios
    Cifra Club Pro
    Aproveite o Cifra Club com benefícios exclusivos e sem anúncios
    OK