Cifra Club

Little Know it all

Sum 41

Cifra: Principal (violão e guitarra)
Tom: F#
Little Know It All - Iggy Pop Feat. Sum 41
por Marcelo Vinhas Gabriel
icq:147172683

Efeitos:
^: bend
^^: bend cheio
v : bend para baixo
vv: bend cheio para baixo
h: hamer
h: hamer mais rápido
p: Pull off
pp: pull off mais rápido
X: Nota morta 
~: vibrato
~~: trêmulo
. (ponto):ligação de nota

obs: use uma distorção pesada mas nem tanto...

Introdução:

Afinação:Guitar Standart(EADGBE)

Intro:(Base)
e|-------------|
b|-------------|
g|10-10-06-08--|
D|10-10-06-08--|
A|08-08-04-06--|
E|-------------|

Intro:(Riff 1)

e|--------------------------|
b|--------------------------|
g|10-10-10-08--10-10-13-12--|
D|XX-XX-XX-XX--XX-XX-XX-XX--|
A|08-08-08-06--08-08-11-10--|
E|--------------------------|

Verso 1

Im a kid that know a lot...
(verso 1 eh tokado com as mesmas notas da intro)

Ponte 1
Am I old???Am I old???...

e|------------|
b|------------|
g|------------|
D|08--06-08---|
A|08--06-08---|
E|06--04-06---|

Verso 2:
A face to face...
(verso 2 eh tokado com as mesmas notas da intro + Riff 1)

Depois do verso 2 repete a ponte...

Refrão:

You take a woman and love...

e|-----------------|
b|-----------------|
g|10--06------08---|
D|10--06--06--08---|
A|08--04--06--06---|
E|--------04-------|

Arranjo1

e|---------|
b|8^v------|
g|---8h10--|
D|---------|
A|---------|
E|---------|

Ponte 2:::Final do Refrão

Little Know it all...(little know it all)...

e|----------------|
b|----------------|
g|------------10--|
D|06--06--08--10--|
A|06--06--08--08--|
E|04--04--06------|

Solo 1

e|-------------------------|
b|----9--------------------|
g|8h10-10p8--8hh10pp8--8~--|
D|---------10--------10----|
A|-------------------------|
E|-------------------------|

e|-------------------------|
b|----9------09-08---------|
g|8h10-10p8--10-08---------|
D|---------10--------------|
A|-------------------------|
E|-------------------------|

verso 3
(mesmas notas da intro)

ponte3
(mesmas notas da ponte1)

verso 4
(mesmas notas da intro)

ponte4
(mesmas notas da ponte1)

:::refrão:::

Pré solo:
And i feel a...
(mesmas notas do refão)

solo 2:

e|-----------------------|
b|6--6--6----------------|
g|8^^8^^8^^6-------------|
D|----------8vv-8pp6-6hh8|
A|------------------8----|
E|-----------------------|

e|------------------------|
b|6--6--6--6h8^8-11p9-----|
g|8^^8^^8^^----------12p8-|
D|------------------------|
A|------------------------|
E|------------------------|

e|-----------------------------------|
b|6--6--6---------11----11-----------|
g|8^^8^^8^^-9h11^^--11^^--11^^vpp9---|
D|--------------------------------8--|
A|-----------------------------------|
E|-----------------------------------|

e|--------------11^^11^^11^^11^^-|deixa o bend soar
b|8h9h11h11^vpp9-----------------|
g|-------------------------------|
D|-------------------------------|
A|-------------------------------|
E|-------------------------------|

pós solo:
(mesmas notas do refão)

arranjo2:

e|8----6---------8-----6-----|
b|----------9~~--------------|
g|---------------------------|
D|---------------------------|
A|---------------------------|
E|---------------------------|

:::Refrão:::

final da musica:

Little know it aaaall......


e|-----------------------------------|
b|-----------------------------------|
g|--------08--------------08.10------|
D|06--06--08--06.06-08.08-08.10------|
A|06--06--06--06.06-08.08-06.08------|
E|04--04------04.04-06.06------------|
exibições 3.501
Acordes para:

    0 comentários

    mostrar mais comentários

    Conseguiu tocar?

    0 tocaram 0 ainda não

    Grave um vídeo tocando Little Know it all e mande pra gente!

    00:00 / 00:00
    outros vídeos desta música
    repetir qualidade Automático
    Outros vídeos desta música
    00:00 / 00:00
    Automático
    OK