Cifra Club

Makes No Difference

Sum 41

Cifra: Principal (violão e guitarra)
Tom: C
e|---------------------------------------------------------------------------|X4
B|---------------------------------------------------------------------------|
G|-8-------------------------------8-8-7-------------------------------------|
D|-8---6h8-------------------------8-8-8-------------------------------------|
A|-6-x------8-8-8--8-8-8--10-8h10--6-6-6-------------------------------------|
E|----------6-6-6--6-6-6---8-------------------------------------------------|

e|---------------------------------------------------------------------------|X2
B|---------------------------------------------------------------------------|
G|---------------------------------------------------------------------------|
D|-8-8-8-8--7-7-7-7----------------------------------------------------------|
A|-6-6-6-6--5-5-5-5--10-10-10-10--6-6-6-6------------------------------------|
E|--------------------8--8--8--8--4-4-4-4------------------------------------|
  |                p.m                   |

e|---------------------------------------------------------------------------|X2
B|---------------------------------------------------------------------------|
G|-8-8-8-8--7-7-7-7----------------------------------------------------------|
D|-8-8-8-8--7-7-7-7--10-10-10-10--6-6-6-6------------------------------------|
A|-6-6-6-6--5-5-5-5--10-10-10-10--6-6-6-6------------------------------------|
E|--------------------8--8--8--8--4-4-4-4------------------------------------|

e|---------------------------------------------------------------------------|X2
B|---------------------------------------------------------------------------|
G|-8-8-8-8-------------------------------------------------------------------|
D|-8-8-8-8--5-5-5-5--6-6-6-6-10-10-10-10-------------------------------------|
A|-6-6-6-6--5-5-5-5--6-6-6-6-10-10-10-10-------------------------------------|
E|----------3-3-3-3--4-4-4-4--8--8--8--8-------------------------------------|

e|-----------------------------------------------------------------------------------------|
B|-----------------------------------------------------------------------------------------|
G|-12-12-12-12-13-12-10---12-12-12-12-13-12--8--12-12-12-12-15-13-10--12-12-12-12-13-15-8--|
D|--x--x--x--x--x--x--x----x--x--x--x--x--x--x---x--x--x--x--x--x--x---x--x--x--x--x--x-x--|
A|-10-10-10-10-11-10--8---10-10-10-10-11-10--6--10-10-10-10-13-11--8--10-10-10-10-11-13-6--|
E|-----------------------------------------------------------------------------------------|

e|---------------------------------------------------------------------------|X2
B|---------------------------------------------------------------------------|
G|---------------------------------------------------------------------------|
D|-8-8-8-8--7-7-7-7----------------------------------------------------------|
A|-6-6-6-6--5-5-5-5--10-10-10-10--6-6-6-6------------------------------------|
E|--------------------8--8--8--8--4-4-4-4------------------------------------|
  |                p.m                   |

e|---------------------------------------------------------------------------|X2
B|---------------------------------------------------------------------------|
G|-8-8-8-8--7-7-7-7----------------------------------------------------------|
D|-8-8-8-8--7-7-7-7--10-10-10-10--6-6-6-6------------------------------------|
A|-6-6-6-6--5-5-5-5--10-10-10-10--6-6-6-6------------------------------------|
E|--------------------8--8--8--8--4-4-4-4------------------------------------|

e|---------------------------------------------------------------------------|X2
B|---------------------------------------------------------------------------|
G|-8-8-8-8-------------------------------------------------------------------|
D|-8-8-8-8--5-5-5-5--6-6-6-6-10-10-10-10-------------------------------------|
A|-6-6-6-6--5-5-5-5--6-6-6-6-10-10-10-10-------------------------------------|
E|----------3-3-3-3--4-4-4-4--8--8--8--8-------------------------------------|

e|---------------------------------------------------------------------------|X2
B|---------------------------------------------------------------------------|
G|-9-9-9-9--8-8-8-8----------------------------------------------------------|
D|-9-9-9-9--8-8-8-8--8-8-8-8--6-6-6-6----------------------------------------|
A|-7-7-7-7--6-6-6-6--8-8-8-8--6-6-6-6----------------------------------------|
E|-------------------6-6-6-6--4-4-4-4----------------------------------------|

e|---------------------------------------------------------------------------|X8
B|---------------------------------------------------------------------------|
G|---------------------------------------------------------------------------|
D|---------------------------------------------------------------------------|
A|-6-6-6-6-------------------------------------------------------------------|
E|---------6-6-6-6--8-8-8-8--4-4-4-4-----------------------------------------|
  |               p.m                |

e|---------------------------------------------------------------------------|X2
B|---------------------------------------------------------------------------|
G|---------------------------------------------------------------------------|
D|-2-2-2-2--4-4-4-4--6-6-6-6--10-10-10-10------------------------------------|
A|-2-2-2-2--4-4-4-4--6-6-6-6--10-10-10-10------------------------------------|
E|-0-0-0-0--2-2-2-2--4-4-4-4---8--8--8--8------------------------------------|

e|-----------------------------------------------------------------------------------------|X2
B|-----------------------------------------------------------------------------------------|
G|-12-12-12-12-13-12-10---12-12-12-12-13-12--8--12-12-12-12-15-13-10--12-12-12-12-13-15-8--|
D|--x--x--x--x--x--x--x----x--x--x--x--x--x--x---x--x--x--x--x--x--x---x--x--x--x--x--x-x--|
A|-10-10-10-10-11-10--8---10-10-10-10-11-10--6--10-10-10-10-13-11--8--10-10-10-10-11-13-6--|
E|-----------------------------------------------------------------------------------------|

e|---------------------------------------X4----------------------------------|
B|---------------------------------------------------------------------------|
G|-8-------------------------------8-8-7-------------------------------------|
D|-8---6h8-------------------------8-8-8-------------------------------------|
A|-6-x------8-8-8--8-8-8--10-8h10--6-6-6-------------------------------------|
E|----------6-6-6--6-6-6---8-------------------------------------------------|

===============================================================================
Letra:

You're running fast and missing but cannot help
convincing.
The reasons you gave me are all wearing thin.
It's not meant to hurt you but let me assure,
It's not what I said but intentions you've read.

So when you hold onto the past then you
Will break down what little is left.
There's nothing more you can't ignore,
And say it makes no difference to me.

It makes no difference to me 

Now that you're older life's weighing on your
shoulders.
You can't seem to keep things so perfectly straight.
With most things so basic you might as well face it.
You can't help but worry it's all just begun

So when you hold onto the past then you,
Will break down what little is left.
There's nothing more you can't ignore,
And say it makes no difference to me.

Ahh, It makes no difference to me 
Ahh, It makes no difference to me 
Ahh, It makes no difference to me 
Ahh, It makes no difference 

So when you hold onto the past then you,
Will break down what little is left.
There's nothing more you can't ignore,
And say it makes no difference to me.

It makes no difference,
It makes no difference to me,
It makes no difference,
It makes no difference to me 
exibições 20.813
Acordes para:

    0 comentários

    mostrar mais comentários

    Conseguiu tocar?

    0 tocaram 0 ainda não

    Grave um vídeo tocando Makes No Difference e mande pra gente!

    00:00 / 00:00
    outros vídeos desta música
    repetir qualidade Automático
    Outros vídeos desta música
    00:00 / 00:00
    Automático
    OK