Cifra Club

Never Wake Up

Sum 41

Cifra: Principal (violão e guitarra)
Tom: E
Verse(fast singing bit)

e|----------------------------------------------------------}
B|----------------------------------------------------------}
D|-------------------------6-6------------------------------}
G|----------6-6----2-2-----6-6---4-4------------------------}X4
A|----------6-6----2-2-----4-4---4-4------------------------}
E|----------4-4----0-0-----------2-2------------------------}

Chorus

  I plan on never waking up..............
e|-------------------------------------------------------------}
B|-------------------------------------------------------------}
D|--------4-4-4-------------------------------7------------7---}
G|--------4-4-4-----4-4-4-----2-2-2-----2-2---7-----2-2----7---}
A|--------2-2-2-----4-4-4-----2-2-2-----2-2---5-----2-2----5---}
E|------------------2-2-2-----0-0-0-----0-0---------0-0--------}

Play verse Again

Then play ChorusX4
exibições 2.455
Acordes para:
    Composição: Deryck Whibley Colaboração e revisão:
    • André boto

    0 comentários

    mostrar mais comentários

    Conseguiu tocar?

    0 tocaram 0 ainda não

    Grave um vídeo tocando Never Wake Up e mande pra gente!

    00:00 / 00:00
    outros vídeos desta música
    repetir qualidade Automático
    Outros vídeos desta música
    00:00 / 00:00
    Automático
    OK