Cifra Club

Pain For Pleasure

Sum 41

Cifra: Principal (violão e guitarra)
Tom: B

riff 1
e|------------------------|--------------------------------|
B|------------------------|--------------------------------|
G|----8-------------------|--------------------------------| 
D|----8-------------------|--------------------------------|
A|----6-------------------|----6--6->-8--8->-9--9->--11----|
E|------------------------|--------------------------------|
   pm.........faded out of pm

riff 2
e|--------------------------------------------------------|
B|--------------------------------------------------------|
G|--8-8-----------6-6-------------------------------------| 
D|--8-8-----------6-6----------9-9---------8-8------------|
A|--6-6--8/9-8-6--4-4-8/9-8-6--9-9-8/9-8-6-8-8-8/9-8-6----|
E|-----------------------------7-7---------6-6------------|

riff 2 (cont.)
e|--------------------------------------------------------|
B|--------------------------------------------------------|
G|---8-8---------6-6--------------------------------------|
d|---8-8--7h8-6--6-6-7h8-6---9-9-7h8-6---8-8-7h8-6-6------|
A|---6-6-------9-4-4------9--9-9------9--8-8------9-------|
E|---------------------------7-7---------6-6--------------|

riff 3
e|----------------------------------------------------------|
B|--7-6---7-6-----7-6---7-6-----7-6----7-6-----7-6------7-6-...|
G|8-----8-----6-6-----8--------------8---------------8------...|
D|--------------------------9-9------------8-8--------------|
A|----------------------------------------------------------|
E|----------------------------------------------------------|

riff 4
e|--------------------------------------------------------|
B|--------------------------------------------------------|
G|-8-8--6-6-----------------------------------------------| 
D|-8-8--6-6--9-9--8-8-------------------------------------|
A|-6-6--4-4--9-9--8-8-------------------------------------|
E|-----------7-7--6-6-------------------------------------|
 pm..................

riff 5
e|--------------------------------------------------------|
B|--------------------------------------------------------|
G|-8-8--12--8---------------------------------------------| 
D|-8-8--12--8---------------------------------------------|
A|-6-6--10--6---------------------------------------------|
E|--------------------------------------------------------|
i dont have my guitar right now so im not sure about this riff here

-------------------------------------------------------------------------------
exibições 8.429
Acordes para:
    Composição: Dave Baksh / Deryck Whibley / Jay McCaslin / Steve Jocz Colaboração e revisão:
    • Pedro

    0 comentários

    mostrar mais comentários

    Conseguiu tocar?

    1 tocaram 0 ainda não

    Grave um vídeo tocando Pain For Pleasure e mande pra gente!

    00:00 / 00:00
    outros vídeos desta música
    repetir qualidade Automático
    Outros vídeos desta música
    00:00 / 00:00
    Automático
    OK