Cifra Club

Ride The Chariot To The Devil

Sum 41

Cifra: Principal (violão e guitarra)
Tom: A
By:Frédéric Hamel

e|---------------------------------------------------------------------------|
B|---------------------------------------------------------------------------|
G|------------------9-9-9-9--------------------------------------------------|
D|-11-12-/---7----7-9-9-9-9--------------------------------------------------|
A|-11-12-/---7----7-7-7-7-7--------------------------------------------------|
E|--9-10-/---5----5----------------------------------------------------------|

e|---------------------------------------------------------------------------|X2
B|---------------------------------------------------------------------------|
G|---------------------------------------------------------------------------|
D|---------------------------------------------------------------------------|
A|-9-999-999-999-9--5-555-555-555-5------------------7-777-777-777-7---------|
E|----------------------------------5-555-555-555-5--------------------------|

  Guitar 1
e|---------------------------------------------------------------------------|X2
B|---------------------------------------------------------------------------|
G|---------------------------------------------------------------------------|
D|---------------------------------------------------------------------------|
A|-9-999-999-999-9--5-555-555-555-5------------------7-777-777-777-7---------|
E|----------------------------------5-555-555-555-5--------------------------|

  Guitar2
e|----------------------9----9-----------------------------------------------|X4
B|--10-10-10-10-10-9-10---10---12-10-----------------------------------------|
G|---------------------------------------------------------------------------|
D|---------------------------------------------------------------------------|
A|---------------------------------------------------------------------------|
E|---------------------------------------------------------------------------|

  Guitar 3
e|---------------------------------------------------------------------------|X4
B|---------------5-----------------------------------------------------------|
G|--6-6-6-6-6-4----6---------------------------------------------------------|
D|-------------------7-6-4---------------------------------------------------|
A|---------------------------------------------------------------------------|
E|---------------------------------------------------------------------------|

  Guitar 1
e|---------------------------------------------------------------------------|X2
B|---------------------------------------------------------------------------|
G|---------------------------------------------------------------------------|
D|---------------------------------------------------------------------------|
A|-9-999-999-999-9--5-555-555-555-5------------------7-777-777-777-7---------|
E|----------------------------------5-555-555-555-5--------------------------|

  Guitar 3
e|--9-9-9-9-9----9--12-9--7/9--7-5-------------------------------------------|X4
B|------------12-------------------------------------------------------------|
G|---------------------------------------------------------------------------|
D|---------------------------------------------------------------------------|
A|---------------------------------------------------------------------------|
E|---------------------------------------------------------------------------|

  Guitar 3
e|---------------------------------------------------------------------------|X4
B|---------------5-----------------------------------------------------------|
G|--6-6-6-6-6-4----6---------------------------------------------------------|
D|-------------------7-6-4---------------------------------------------------|
A|---------------------------------------------------------------------------|
E|---------------------------------------------------------------------------|

e|---------------------------------------------------------------------------|
B|---------------------------------------------------------------------------|
G|-11--6-7/-----------9--9--9--9---9-11--6-7/---------9--9--9--9---9--11-----|
D|-11--6-7/--7----7---9--9--9--9---9-11--6-7/---7--7--9--9--9--9---9--11-----|
A|--9--4-5/--7----7---7--7--7--7---7--9--4-5/---7--7--7--7--7--7---7---9-----|
E|-----------5----5-----------------------------5--5-------------------------|

===============================================================================
exibições 2.313
Acordes para:
    Composição: Sum 41 Colaboração e revisão:
    • Pedro

    0 comentários

    mostrar mais comentários

    Conseguiu tocar?

    0 tocaram 0 ainda não

    Grave um vídeo tocando Ride The Chariot To The Devil e mande pra gente!

    00:00 / 00:00
    outros vídeos desta música
    repetir qualidade Automático
    Outros vídeos desta música
    00:00 / 00:00
    Automático
    OK