Notificações Amigos pendentes

      Sum 41

      Still Waiting

      69.856 exibições
      Tom: C
      Versão 1
      -======-
      
      
      Todas as notas são em 5ª(Power chord)
      
      ( ) abafado
       
      _  deixa a nota soar
      
       < slide c/ a nota para o começo do braço
      
      / pull-on
      
      \ pull-off
      
      Introdução
      
      So am I still waiting
      For this world to stop hating
      Can't find a good reason
      Can't find hope to believe in
      
        E        C       G       B  
      /-----| |-----| |-----| |-----\
      |-----| |-----| |-----| |-----|
      |-(9)-| |-(5)-| |-----| |-(4)-|
      |-(9)-| |-(5)-| |-(5)-| |-(4)-|
      |-(7)-| |-(3)-| |-(5)-| |-(2)-|
      \-----| |-----| |-(3)-| |-----/
      
         E       C       G         D
      /-----| |-----| |-----| |---------\
      |-----| |-----| |-----| |---------|
      |-(9)-| |-(5)-| |-----| |-(5)-5_<-|
      |-(9)-| |-(5)-| |-(5)-| |-(5)-5_<-|
      |-(7)-| |-(3)-| |-(5)-| |-(7)-7_<-|
      \-----| |-----| |-(3)-| |---------/ 
      
      Base do Riff 1
      
      E, C, E, C, B
      
      na base acima o primeiro E(mi) e o segundo são diferentes assim: 
        1ºE       2ºE
      /-----\   /-----\
      |-----|   |-----|
      |--9--|   |-----|
      |--9--|   |--2--|
      |--7--|   |--2--|
      \-----/   \--0--/
      
      Riff 1
      
      /-------------------------5-------\
      |-8-7-8----8-7-8----8-7-8---8-7---|
      |-------------------------------7-|
      |---------------------------------|
      |---------------------------------|
      \---------------------------------/
      
      
      
      
         E   C\B   C\B  C\B   E   G\F#  G\F#   G\F#
      
      /--------------------------------------------\ 
      |--------------------------------------------| 
      |------5\4---5\4--5\4------------------------| 
      |-2-2--5\4---5\4--5\4---2---5\4---5\4----5\4-| 
      |-2-2--3\2---3\2--3\2---2---5\4---5\4----5\4-| 
      \-0-0-------------------0---3\2---3\2----3\2-/ 
      
      
        E     C\B  C\B   C\B   (E)   (B)
      
      /-----------------------------------\
      |-----------------------------------|
      |------5\4---5\4---5\4---------(2)--|
      |-2-2--5\4---5\4---5\4---(2)---(2)--|
      |-2-2--3\2---3\2---3\2---(2)---(3)--|
      \-0-0--------------------(0)--------/
      
      
      Drop dead
      A bullet to my head
      Your words are like a gun in hand
      You can't change the state of the nation
      We just need some motivation
      
      These eyes
      Have seen no conviction
      Just lies and more contradiction
      So tell me what would you say
      I'd say it's time too late....
      
      E C E C
      So am I still waiting
      For this world to stop hating
      Can't find a good reason
      Can't find hope to believe in
      
      Repete Riff 1 com a mesma base, tocando duas vezes cada nota da base
      
      Segunda Parte:
      
       E   C\B   C\B  C\B   E   G\F#  G\F#   G\F#
      
      /--------------------------------------------\ 
      |--------------------------------------------| 
      |------5\4---5\4--5\4------------------------| 
      |-2-2--5\4---5\4--5\4---2---5\4---5\4----5\4-| 
      |-2-2--3\2---3\2--3\2---2---5\4---5\4----5\4-| 
      \-0-0-------------------0---3\2---3\2----3\2-/ 
      
      
        E     C\B  C\B   C\B   (E)   (B)
      
      /-----------------------------------\
      |-----------------------------------|
      |------5\4---5\4---5\4---------(2)--|
      |-2-2--5\4---5\4---5\4---(2)---(2)--|
      |-2-2--3\2---3\2---3\2---(2)---(3)--|
      \-0-0--------------------(0)--------/
      
      
      Ignorance
      And understanding
      We're the first ones to jump in line
      Out of step for what we believe in
      But who's left to stop the bleeding
      
      How far
      Will we take this
      It's not hard to see through the fakeness
      So tell me what would you say
      I'd say it's time too late
      
      E C E C B
      So am I still waiting
      For this world to stop hating
      Can't find a good reason
      Can't find hope to believe
      
       E C G B
      This can't last forever
      Time won't make things better
      I feel so alone
      
      Aqui uma guitarra fica fazendo o Riff 2 e a outra a base
       E C D 
      Can't help myself
      And no one knows
      If this is worthless, tell me so
        
      Aqui uma guitarra faz o Riff dois 
      e a outra fica na base batendo a nota e deixando soar
      
      E_  D_  C_  B_
       
       Riff 2:
      
      /-------------------------------------------------------------------------\
      |-------------------------------------------------------------------------|
      |-------------------------------------------------------------------------|
      |-------------------------------------------------------------------------|
      |-7-7-7-7-7-7-7-7-7-7-7-7-7-7-7-7-7-7-9-9-9-9-9-9-9-9-10-10-10-10-9-9-9-9-|
      \-------------------------------------------------------------------------/
      
      
      Solo
      
      Este solo é um combinação das duas guitarras. 
      Uma Fica fazendo o Riff 2 e a ou tra fica repetindo
      
      
      /--------------------------\
      |--------------------------|
      |--------------------------|
      |--------------------------|
      |-9-7---7-9-7---9-7---7-9-7|
      \--------------------------/
      
      
      What have we done
      with a war that can't be won
      This can't be real
      Cause I don't know what to feel 
      
      Riff 2 e O solo continuam e a aí tem a ponte para ir pro refrão
      
      ( a ponte é so ficar tocando o Sí abafado)
      
      Ponte (B)
      
      E C E C B
      So am I still waiting
      For this world to stop hating
      Can't find a good reason
      Can't find hope to believe
      
      So am I still waiting
      For this world to stop hating
      Can't find a good reason
      For this world to BELIEVE
      
      By Vinny
      
      
      _______________________________________________________
      
      
      
      
      
      
      Versão 2
      -======-
      
      #####################################
      ## Guitar1: Guitarra Base (Bizzy D)##
      ## Guitar2: Guitarra Solo (Dave)   ##
      #####################################
      
      Guitar1: utiliza o "Distortion"(esse efeito eh melhor) ou "Metal"
      Guitar2: utiliza-se o "Distortion"
      
      Obs: As duas guitarras não usam a distorção com ganho mto alto.
      
      
                                       INTRODUÇÃO
                                      ============
      
      Aew galera!! tudo em cima?!
      hummm... SUM 41 eh uma das minhas banda preferidas kras! Oha!
      os kras naum fragam mto de toca... mas o som deles eh o bicho!!!!!
      Bom d+!! =]
      
      bem, dah pra perceber q... a música eh mtoooooo fácil de tocar!
      acho q vcs naum vaum ter nenhum problem! Mas, ahmmm...
      qlqr dúvida me manda um mail! oks?!
      Tipo... mas pra evitar essas dúvidas eu peço q...
      prestem MUUUUUUITA atenção na música!
      se precisar fique horas escutando e voltando a música(rsrs toh zuando!)!
      mas... isso pq... alguns riffs saum bem escondidos!
      e outra coisa! comece a aprender a tocar por partes da música!
      isso ajuda mto...!
      
      bem! isso aew! sem mais papo! vamo lah!
      
      
      Técnicas:
        / = slide up
        \ = slide down
        m = palm mute
      
      =================================================================================================
      INTRO/POST-CHORUS:
      
      Intro A (guitar1)
      
      e|---------------------------------------------------------------------------------------|
      B|---------------------------------------------------------------------------------------|
      G|--4m-4m-4m-4m-4m-4m-4m-----------------------------------------------------------------|
      D|--2m-2m-2m-2m-2m-2m-2m-5m-5m-5m-5m-5m-5m-5m----------------------4m-4m-4m-4m-4m-4m-4m--|
      A|-----------------------3m-3m-3m-3m-3m-3m-3m-5m-5m-5m-5m-5m-5m-5m-2m-2m-2m-2m-2m-2m-2m--|
      E|--------------------------------------------3m-3m-3m-3m-3m-3m-3m-----------------------|
      
        "So am I..."
      
      (Continua...)
      
      e|--------------------------------------------------------------------------------------|
      B|--------------------------------------------------------------------------------------|
      G|--4m-4m-4m-4m-4m-4m-4m-------------------------------------------------------------7--|
      D|--2m-2m-2m-2m-2m-2m-2m-5m-5m-5m-5m-5m-5m-5m----------------------7m-7m-7m-7m-7m-7m-7--|
      A|-----------------------3m-3m-3m-3m-3m-3m-3m-5m-5m-5m-5m-5m-5m-5m-5m-5m-5m-5m-5m-5m-5--|
      E|--------------------------------------------3m-3m-3m-3m-3m-3m-3m----------------------|
      
        "Can't find a..."
      
      
      INTRO B (guitar1)
      
      e|------------------------------------------|
      B|------------------------------------------|
      G|-----------5-5-5-5-----------5-5-5-4-4-4--|
      D|--2-2-2-2--5-5-5-5--2-2-2-2--5-5-5-4-4-4--|
      A|--2-2-2-2--3-3-3-3--2-2-2-2--3-3-3-2-2-2--|
      E|--0-0-0-0-----------0-0-0-0---------------|
      
      
      INTRO C & POST-CHORUS A (guitar2)
      
      e|------|-----------------------------------------------------------|
      B|------|-----------------------------------------------------------|
      G|------|--9/12--11-12----9/12--11-12----9/12--11-12-12/14-12-11-7--|
      D|------|--x------x--x----x------x--x----x------x--x--x-----x--x-x--|
      A|------|--7/10---9-10----7/10---9-10----7/10---9-10-10/12-10--9-5--|
      E|--7\--|-----------------------------------------------------------|
      
      
      POST-CHORUS B (guitar1)
      
      e|----------------------------------------|
      B|----------------------------------------|
      G|----------5-5-5:----------5-5-5-4-4-4:--|
      D|--2-2-2:--5-5-5:--2-2-2:--5-5-5-4-4-4:--|
      A|--2-2-2:--3-3-3:--2-2-2:--3-3-3-2-2-2:--|
      E|--0-0-0:----------0-0-0:----------------|
      
      
      ==================================================================================
      VERSOS:
      
      Verse A (guitar2)
      
      e|-----------------------------------------------------------------------------------|
      B|-----------------------------------------------------------------------------------|
      G|-----------------------------------------------------------------------------------|
      D|------------------------------------------------------------------------5-5--5--5--|
      A|--2---------------------------8\7-8\7--5/7--2---------------------------5-5--5--5--|
      E|--0-0m---0m-0m-0m---0m-0m-0m--6\5-6\5--3/5--0-0m---0m-0m-0m---0m-0m-0m--3-3--3--3--|
      
        "Drop dead!..."
      
      (Continua...)
      
      e|------------------------------------------------------------------------------------------|
      B|------------------------------------------------------------------------------------------|
      G|--------------------------------------------------------------------4m-4m-4--7m-7m--7--7--|
      D|-------------------------------------------5m-5m-5m-5m-5m-5m-5m-5m--4m-4m-4--7m-7m--7--7--|
      A|-2---------------------------8\7-8\7--5\7--5m-5m-5m-5m-5m-5m-5m-5m--2m-2m-2--5m-5m--5--5--|
      E|-0-0m---0m-0m-0m---0m-0m-0m--6\5-6\5--3\5--3m-3m-3m-3m-3m-3m-3m-3m------------------------|
      
      
      (Continua...)
      
      e|-----------------------------------------------------------------------------------|
      B|-----------------------------------------------------------------------------------|
      G|-----------------------------------------------------------------------------------|
      D|------------------------------------------------------------------------5-5--5--5--|
      A|--2---------------------------8\7-8\7--5/7--2---------------------------5-5--5--5--|
      E|--0-0m---0m-0m-0m---0m-0m-0m--6\5-6\5--3/5--0-0m---0m-0m-0m---0m-0m-0m--3-3--3--3--|
      
      
      (Continua...)
      
      e|------------------------------------------------------------------------------------------|
      B|------------------------------------------------------------------------------------------|
      G|------------------------------------------------------------------------------------------|
      D|--------------------------------------------5m-5m-5m-5m-5m-5m-5m-5m--4m-4m-4m-4m-4-4-4-4--|
      A|--2---------------------------8\7-8\7--5/7--5m-5m-5m-5m-5m-5m-5m-5m--2m-2m-2m-2m-2-2-2-2--|
      E|--0-0m---0m-0m-0m---0m-0m-0m--6\5-6\5--3/5--3m-3m-3m-3m-3m-3m-3m-3m-----------------------|
      
      
      =================================================================================================
      CHORUS:
      
      Chorus A (guitar1)
       |(Pick Scrape Down)|
      
      e|------------------|--------------------------------------------------|
      B|------------------|--------------------------------------------------|
      G|------------------|--------------5--5--5--5--------------4--4--4--4--|
      D|------------------|--2--2--2--2--5--5--5--5--5--5--5--5--4--4--4--4--|
      A|-\\\\\\\\\\\\\\\--|--2--2--2--2--3--3--3--3--5--5--5--5--2--2--2--2--|
      E|-\\\\\\\\\\\\\\\--|--0--0--0--0--------------3--3--3--3--------------|
      
                            "So am I..."
      
      (Continua...)
      
      e|--------------------------------------------------|
      B|--------------------------------------------------|
      G|--9--9--9--9--5--5--5--5--------------4--4--4--4--|
      D|--9--9--9--9--5--5--5--5--5--5--5--5--4--4--4--4--|
      A|--7--7--7--7--3--3--3--3--5--5--5--5--2--2--2--2--|
      E|--------------------------3--3--3--3--------------|
      
        "Can't find a..."
      
      Chorus B (guitar2)
      
      e|-------------------------------------------------------------------------|
      B|-------------------------------------------------------------------------|
      G|--7/9-9-9-9-9-9-9--7/9-9-9-9-9-9-9--12-12-12-12-12-12-12--7-7-7-7-7-7-7--|
      D|--x---x-x-x-x-x-x--x---x-x-x-x-x-x---x--x--x--x--x--x--x--x-x-x-x-x-x-x--|
      A|--5/7-7-7-7-7-7-7--x---x-x-x-x-x-x--10-10-10-10-10-10-10--5-5-5-5-5-5-5--|
      E|-------------------------------------------------------------------------|
      
        "So am I..."
      
      (Continua...)
      
      e|--------------------------------------------------------------------------------|
      B|--------------------------------------------------------------------------------|
      G|--7/9-9-9-9-9-9-9--7/9-9-9-9-9-9-9--12-12-12-12-12-12-12--11-11-11-11-11-11-11--|
      D|--x---x-x-x-x-x-x--x---x-x-x-x-x-x---x--x--x--x--x--x--x---x--x--x--x--x--x--x--|
      A|--5/7-7-7-7-7-7-7--x---x-x-x-x-x-x--10-10-10-10-10-10-10---9--9--9--9--9--9--9--|
      E|--------------------------------------------------------------------------------|
      
        "Can't find a..."
      
      =================================================================================================
      BRIDGE:
      
      Bridge A (guitar1)
      
      e|------------------------------------------|
      B|------------------------------------------|
      G|------------5---5--5------------4---4--4--|
      D|--2---2--2--5---5--5--5---5--5--4---4--4--|
      A|--2---2--2--3---3--3--5---5--5--2---2--2--|
      E|--0---0--0------------3---3--3------------|
      
        "This! can't! let's..."
      
      Bridge B (guitar2)
      
      e|----------------------------------------------|
      B|----------------------------------------------|
      G|--4--4-4/5--5--12-12\11-11-11\9-9-9/11-11-11--|
      D|--x--x-x----x---x--x-----x--x---x-x-----x--x--|
      A|--2--2-2/3--3--10-10\-9--9--9\7-7-7/-9--9--9--|
      E|----------------------------------------------|
      
        "This! can't! let's..."
      
      (continua...)
      
      e|-------------------------------------------------|
      B|-------------------------------------------------|
      G|--4--4-4/5--5--12-12\11-11-11\12-12-12/14-14-14--|
      D|--x--x-x----x---x--x-----x--x-----x--x-----x--x--|
      A|--2--2-2/3--3--10-10\-9--9--9\10-10-10/12-12-12--|
      E|-------------------------------------------------|
      
        "Time! won't! make..."
      
      Bridge C (guitar1)
      
      e|---------------------------------|
      B|---------------------------------|
      G|--9-9-9-9-9-9-9-9--5-5-5--7-7-7--|
      D|--9-9-9-9-9-9-9-9--5-5-5--7-7-7--|
      A|--7-7-7-7-7-7-7-7--3-3-3--5-5-5--|
      E|---------------------------------|
      
        "I... feel so alone..."
      
      Bridge D (guitar2)
      
      e|---------------------------------|
      B|---------------------------------|
      G|--9-9-9-9-9-9-9-9-9-11-11-11-11--|
      D|--x-x-x-x-x-x-x-x-x--x--x--x--x--|
      A|--7-7-7-7-7-7-7-7-7--9--9--9--9--|
      E|---------------------------------|
      
        "I... feel so alone..."
      
      =================================================================================================
      INTERLUDE:
      
      Interlude A (guitar1)
      
      E|---------------------------------------------------|
      B|---------------------------------------------------|
      G|--9-9-9-9-9-9-9-9-9-12-12-12-12-12-11-11-11-11-11--|
      D|--x-x-x-x-x-x-x-x-x--x--x--x--x--x--x--x--x--x--x--|
      A|--7-7-7-7-7-7-7-7-7-10-10-10-10-10--9--9--9--9--9--|  ##############################
      E|---------------------------------------------------|  ## O Interlude A da música  ##
       |||||||||||||||||||||||||||||||||||||||||||||||||||||  ## varia nesses dois riffs. ##
      e|---------------------------------------------------|  ## Preste atenção! escute a ##
      B|---------------------------------------------------|  ## música bem!              ##
      G|--9-9-9-9-9-9-9-9-9-12-12-12-12-12-14-14-14-14-14--|  ##############################
      D|--x-x-x-x-x-x-x-x-x--x--x--x--x--x--x--x--x--x--x--|
      A|--7-7-7-7-7-7-7-7-7-10-10-10-10-10-12-12-12-12-12--|
      E|---------------------------------------------------|
      
      
      Interlude B (guitar2)
      
      e|----------------------------------------|
      B|----------------------------------------|
      G|------------5-5-5:--------------4-4-4:--|
      D|--2-2-2:----5-5-5:----2-2-2:----4-4-4:--|
      A|--2-2-2:----3-3-3:----2-2-2:----2-2-2:--|
      E|--0-0-0:--------------0-0-0:------------|
      
      
      Interlude C (guitar2)
      
      e|------------|-------------------------------------------------------|
      B|------------|-------------------------------------------------------|
      G|------------|-------------------------------------------------------|
      D|------------|------9---------------9----------------9---------------|
      A|--/////\\\--|--7-----10-9----9-7-----10-9----9-10-----10-9----9-10--|
      E|--/////\\\--|-------------10--------------10---------------10-------|
      
      
      (continua..) [2ª parte]
      
      e|---------------------|
      B|---------------------| ###################################
      G|---------------------| ## No final do riff (qnd vai     ##
      D|---------------------| ## pro chorus) repete-se nova-   ##
      A|--9-9-10-12-10-9-10--| ## mente a segunda parte do riff ##
      E|---------------------| ###################################
      
      
      =================================================================================================
      OUTRO:
      
      Outro A (guitar2)
      
      e|----------------------------------------------------------------------|
      B|----------------------------------------------------------------------|
      G|--7/9-9-9-9-9-9-9--7/9-9-9-9-9-9-9--12-12-12-12-12-12-12--14-12-11-7--|
      D|--x---x-x-x-x-x-x--x---x-x-x-x-x-x---x--x--x--x--x--x--x---x--x--x-x--|
      A|--5/7-7-7-7-7-7-7--x---x-x-x-x-x-x--10-10-10-10-10-10-10--12-10--9-5--|
      E|----------------------------------------------------------------------|
      
        "So am I..."
      
      Outro B (guitar2)
      
      e|--------------------------------------------------------------------------------|
      B|--------------------------------------------------------------------------------|
      G|--7/9-9-9-9-9-9-9--7/9-9-9-9-9-9-9--12-12-12-12-12-12-12------------------------|
      D|--x---x-x-x-x-x-x--x---x-x-x-x-x-x---x--x--x--x--x--x--x------------------------|
      A|--5/7-7-7-7-7-7-7--x---x-x-x-x-x-x--10-10-10-10-10-10-10--10-9-9-10-12-10-9-10--|
      E|--------------------------------------------------------------------------------|
      
        "So am I..."
      
      =================================================================================================
      END:
      
      End A (guitar1 & guitar2)
      
      e|------------------|
      B|------------------|
      G|--9--9--9--9--9\--|
      D|--9--9--9--9--9\--|
      A|--7--7--7--7--7\--|
      E|------------------|
      
      "Be..lieve!!!"
      
      =================================================================================================
      Ordem da Música:
      
      1)INTRO: A(x1)
      2)INTRO: B(x2),C(x2)
      3)VERSE: A(x1)
      4)CHORUS: A(x1),B(x1)
      5)POST-CHORUS: A(x1),B(x1)
      6)VERSE: A(x1)
      7)CHORUS: A(x1),B(x1)
      8)BRIDGE: A(x2),B(x1)
      9)BRIDGE: C(x4),D(x4)
      10)INTERLUDE: A(x1),B(x1)
      11)INTERLUDE A(x5),C(x4)
      12)CHORUS: A(x1) ; OUTRO: A(x2)
      13)CHORUS: A(x1) ; OUTRO: B(x2)
      14)END: A(x1)
      
      Obs: "(x1),(x2), etc." significa qnts vzs deve ser tocado o riff...
      por exemplo... INTERLUDE: A(x5),C(x4)= o riff "Interlude A" deve ser
      tocado 5 vezes... e o "Interlude C" deve ser tocado 4 vezes...
      
      
      
      
                                            COMENTÁRIOS
                                           =============
      
      aew! acharam difícil?!
      a guitarra solo eh menos fácil... o q era de se esperar!
      mas... se vc tiver dificuldades com ela...
      treine bem! eh fácil! depois vc vai ver!
      
      poh! entaum! vo ficandu por aki!
      Naum se esqueça! qlqr dúvida... me manda um mail!
      
      teh mais galera! moh abraçaum!
      Flowssssssss!!! ^__________^
      
      (Daniel Nunes)
        Composição: Deryck Whibley / Greig NoriColaboração e revisão:
        • VinnY

        Comentários 3

        140 .
        • thekirajustice thekirajustice: Em 14/09/2012 08:04

          Valeu pela tab cara, tava cansado de ir em sites gringos, ae tem muita informação me ajudou bastante,
          a propósito, Sum 41 é uma ótima banda

          • thekirajustice thekirajustice: Em 14/09/2012 08:06

            Não pela dificuldade da música em sí, mas eles tem músicas ótimas e simples,esse é o estilo Punk Rock, curto heavy metal mas eles fritam de+

          • thekirajustice thekirajustice: Em 14/09/2012 08:10

            Ahh quase esquecendo, We're all to blame também é uma música com feeling bem legal, e The Hell Song é bem legal de toca, o solo facil e lgl

        140 cancelar

        conseguiu tocar?

        covers

        Grave um vídeo tocando Still Waiting e mande pra gente!

        Ex.: http://www.youtube.com/watch?v=0IvSvIwGdwk
        ver covers de outras músicas »
        0:00 / 0:00

        Capítulos

          3 versões de violão dificuldade exibições contribuição e correção
          3 versões de guitarra dificuldade exibições contribuição e correção
          3 versões de cavaco dificuldade exibições contribuição e correção
          3 versões de teclado dificuldade exibições contribuição e correção
          1 versão de bateria exibições contribuição e correção
          2 versões de Guitar Proformatodownloadscontribuição
          play/pausefechar subir/descer velocidade
          6ª corda E5ª corda A4ª corda D3ª corda G2ª corda B1ª corda E
            acordes
            publicidade
            fechar
            ok