Cifra Club

Aprenda

Bolero

Sungha Jung

Cifra: Principal (violão e guitarra)
tom: E
E|----------|-------|-------|-------|-8----7h8--10p8--7p5---|
B|----------|-------|-------|-------|-----------------------|
G|----0-----|---0---|---0---|---0---|----0------------------|
C|----------|-------|-------|-------|-----------------------|
G|------0---|-----0-|-----0-|-----0-|-----------0-----------|
C|--0-----0-|-0-----|-0-----|-0-----|-0---------------------|

E|-8--8p5--8-----7h8-|-5p3-------3----|--------------3h5p3--|
B|-------------------|------5h6-------|---6p5-3-5h6---------|
G|---------0---------|-----------0----|---------0-----------|
C|-------------------|----------------|---------------------|
G|------------0------|--------------0-|---------------------|
C|-0-----------------|-0--------------|-0----------------0--|

E|------5h7p5-3---------|-------------------|----3----------|
B|---------------6--5p3-|-5p3-1-----1-3-5-6-|-3-------------|
G|---0------------------|--------0----------|----0----------|
C|----------------------|-------------------|---------------|
G|------------0---------|---------------0---|-------0-------|
C|-0--------------------|-0-----------------|-0-------------|

E|-------|-10-----8p7------7p8-|-10p8-7-----8p7------8h7--------|
B|-------|-------------10------|-----------------10-------10--6-|
G|---0---|-----0---------------|---------0----------------------|
C|-------|---------------------|--------------------------------|
G|-----0-|----------0----------|---------------------0----------|
C|-0-----|-0-------------------|-0------------------------------|

E|----------5--8-5-7---|-----------5--7----5---|-------------------|
B|---6-6-6-----------8-|-6--6-6-6--------8---6-|-3--3-----3----3-3-|
G|-------0-------------|--------0--------------|-------5--0--------|
C|---------------------|-----------------------|-------------------|
G|-------------0-------|--------------0--------|-------------0-----|
C|-o-------------------|-0---------------------|-0-----------------|

E|-------5---3----------|-------------------|-3------------|
B|-3--6----6---5-3--3---|-3-----3----3--5h6-|--------6-5-3-|
G|-------0------------5-|-----0---5---------|---0----------|
C|----------------------|-------------------|--------------|
G|---------------0------|------------0------|------0-------|
C|-0--------------------|-0-----------------|-0------------|

E|------------------------|--------------------------------|
B|----------5--------3----|---------5--------3-------------|
G|-5--0-0-0-7--0-0-0-5--0-|---0-0-0-7--0-0-0-5--0-0-0-0-0--|
C|------------------------|---------0----------------------|
G|----------0--------0----|------------------0-------------|
C|-0----------------------|-0------------------------------|

E|-8----------7h8--10p8--7s5-|-8--8p5--8-----------7h8-----|
B|---------5-----------------|---------5--------3----------|
G|---0-0-0-5-----------------|---------5--0-0-0-4----------|
C|---------0-----------------|---------0-------------------|
G|---------------------------|------------------0----------|
C|-0---------------0---------|-0---------------------------|

E|-5p3-------3-------------|---------------3h5--3------------|
B|------5h6--5--------3----|---6-5-3--5h6-------3------------|
G|-----------5--0-0-0-4--0-|----------5---------4--0-0-0-0-0-|
C|-----------0-------------|----------0----------------------|
G|--------------------0----|--------------------0------------|
C|-0-----------------------|-0-------------------------------|

E|------------5h7p5--3--------|------------------------|
B|---------5---------3--6-5p3-|-5p3-1-------1-3-5-6----|
G|---0-0-0-5---------4--------|-----0-0-0-0------------|
C|---------0------------------|-----------0------------|
G|-------------------0--------|-----------------0------|
C|-0--------------------------|-0----------------------|

E|----------3-------------|------------------------------|
B|-3--------6--------3----|---------6--------3-----------|
G|----0-0-0-7--0-0-0-4--0-|---0-0-0-7--0-0-0-4-0-0-0-0-0-|
C|----------0-------------|---------0--------------------|
G|-------------------0----|------------------0-----------|
C|-0----------------------|-0----------------------------|

E|-10--------------8p7----7h8-|-10p8-7----8p7-5-8p7-------|
B|-----------6---------10-----|---------------------10--6-|
G|-----0-0-0-7--0-------------|--------10-----------------|
C|-----------0----------------|--------0------------------|
G|-------------------0--------|-----------------0---------|
C|-0--------------------------|-0-------------------------|

E|------------5--8-5-7---|-------------5--7----5----|
B|---6-6-6-6-----------8-|-6--6-6-6-6--------8---6--|
G|---------7-----7-------|----------7-----7---------|
C|---------0-------------|----------0---------------|
G|---------------0-------|----------------0---------|
C|-0---------------------|-0------------------------|

E|------------------------|-------5---3--------------|
B|-3--3---3-----------3-3-|-3--6----6---5-3--3-------|
G|------5-0--0-0-0-0------|-------0-------4-----5----|
C|------------------------|--------------------------|
G|-----------------0------|---------------0----------|
C|-0----------------------|-0------------------------|

E|-------------------------|-3-----------------------|
B|-3-----------3----3--5h6-|----------5-----3--6-5-3-|
G|----0-0-0-0----5--4------|----0-0-0-5--0--4--------|
C|----------0-------0------|----------0--------------|
G|-------------------------|----------------0--------|
C|-0-----------------------|-0-----------------------|

E|---------(3)-------(3)---|--------(3)-------(3)------------|
B|-5--------5---------3----|---------5---------3-------------|
G|----0-0-0-5---0-0-0-3--0-|---0-0-0-5---0-0-0-3---0-0-0-0-0-|
C|----------0--------------|---------0-----------------------|
G|--------------------0----|-------------------0-------------|
C|-0-----------------------|-0-------------------------------|

E|-6-----------5------6h8-5s3-|-6--5p3--6-----5--6-5-3--|
B|----------5----8-6----------|---------5-----3---------|
G|----0-0-0-5-----------------|---------5--0--3---------|
C|----------0-----------------|---------0---------------|
G|--------------------0-------|---------------0---------|
C|-0--------------------------|-0-----------------------|

E|-----------------------|------------6--8--9-|--9--9--9--9--9-|
B|------------6-5p3-5----|---------5----------|-----5----------|
G|---0-0-0-5--------3--0-|---0-0-0-5-----7----|-----5-----7----|
C|---------0-------------|---------0----------|-----0----------|
G|------------------0----|---------------0----|-----------0----|
C|-0---------------------|-0------------------|-0--------------|

E|-9-9-9-9-8-6-9-8-6-|-9-8-6-------------|---------------------------------|
B|-------5-----------|-------9-8-6-5-----|---------5--------3--------------|
G|-------5-----7-----|-----------------0-|---0-0-0-5--0-0-0-3--0-0-0-0-0-0-|
C|-------0-----------|---------0---------|---------0-----------------------|
G|-------------0-----|---------------0---|------------------0--------------|
C|-0-----------------|-0-----------------|-0-------------------------------|

E|-----------------------|---------3--4--1--3--0-|---------------------|
B|-3-----------s5--3-5-6-|---------3-------------|-3h5p3---------------|
G|-2--0-0-0-0------------|---0-0-0-4-------------|--------5-----3----3-|
C|-5--------0------------|---------0-------------|-----------0---------|
G|-----------------0-----|---------------0-------|----------------0----|
C|-0---------------------|-0---------------------|-0-------------------|

E|------------------------|----------------|-----------------|
B|--------3h5-3---3-------|----------------|-----------------|
G|--5p3-5-------5---5-3p1-|-3p1--0---------|------0----------|
C|--------0---------------|--------0-5---5-|--5-----5-3------|
G|----------------0-------|------------0---|----0-------0----|
C|-0----------------------|-0--------------|-0-------------0-|

E|-------------------|--------------------------|-8-8p5-8----------7h8-|
B|-------------------|--------------------------|-------5--------3-----|
G|-----------------0-|---0-0-0------------------|-------5--0-0-0-4-----|
C|---3---5-3-5-1-----|------------1-3-1-5-3-1-0-|-------0--------------|
G|-----0-0-------0---|----------0-------0-------|----------------0-----|
C|-0-----------------|-0------------------------|-0--------------------|

E|-------------3h5-3------------|-----------5h7p5-3------------|
B|--6-5-3-5h6------3------------|---------5-------3--6-5p3-----|
G|--------5--------4--0-0-0-0-0-|---0-0-0-5-------4------------|
C|--------0---------------------|---------0--------------------|
G|-----------------0------------|-----------------0------------|
C|-0----------------------------|-0----------------------------|

E|----------------------|----------3------------|
B|-5p3-1-------1-3-5--6-|-3--------6--------3---|
G|-----0-0-0-0----------|----0-0-0-7--0-0-0-4-0-|
C|-----------0----------|----------0------------|
G|-----------------0----|-------------------0---|
C|-0--------------------|-0---------------------|

E|-------------------------------|-10-------------8p7------7h8-|
B|---------6--------3------------|----------6----------10------|
G|---0-0-0-7--0-0-0-4--0-0-0-0-0-|----0-0-0-7--0---------------|
C|---------0---------------------|----------0------------------|
G|------------------0------------|------------------0----------|
C|-0-----------------------------|-0---------------------------|

E|-10p8-7----8p7-5-8p7-------|-----------5-8-5-7---|------------5-7---5---|
B|----------------------10-6-|--6-6-6-6----------8-|-6--6-6-6-6-----8---6-|
G|--------10-----------------|--------7----7-------|----------7---7-------|
C|--------0------------------|--------0------------|----------0-----------|
G|-----------------0---------|-------------0-------|--------------0-------|
C|-0-------------------------|-0-------------------|-0--------------------|

E|------------------------|------5---3----------|-----------------------|
B|-3--3---3-----------3-3-|-3--6---6---5-3--3---|-3----------3---3--5h6-|
G|------5-0--0-0-0-0------|------0-------4----5-|----0-0-0-0---5-4------|
C|------------------------|---------------------|----------0------------|
G|-----------------0------|--------------0------|----------------0------|
C|-0----------------------|-0-------------------|-0---------------------|

E|-3-----------------------|---------(3)------(3)---|
B|----------5-----3--6-5-0-|----------5--------3----|
G|----0-0-0-5--0--4--------|-5--0-0-0-5--0-0-0-3--0-|
C|----------0--------------|----------0--------0----|
G|----------------0--------|------------------------|
C|-0-----------------------|-0----------------------|

E|--------(3)------(3)-----------|-6---------5-----6h8-5s3-|
B|---------5--------3------------|---------5---8-6---------|
G|---0-0-0-5--0-0-0-3--0-0-0-0-0-|---0-0-0-5---------------|
C|---------0--------0------------|---------0---------------|
G|-------------------------------|-----------------0-------|
C|-0-----------------------------|-0-----------------------|

                                                    V V V  V
E|-6-5p3-6---5-6-5-3-|---------------------|-----------6-8--9---|
B|-------5---3-------|-----------6-5p3-5---|---------5-8-10-11--|
G|-------5-0-3-------|---0-0-0-5-------3-0-|---0-0-0-5----------|
C|-------0-----------|---------0-----------|---------0----------|
G|-----------0-------|-----------------0---|-------------0------|
C|-0-----------------|-0-------------------|-0------------------|

    V   V  V  V    V  V  V   V V  V V  V  V   V  V  V V  V V    V         
E|---9---9--9--9--|-9--9--9---9s8--6s9--8--6-|-9--8--6--------0-----|
B|---11--11-11-11-|-11-11-11-11s10-8s11-10-8-|-11-10-8-9--8-6-5---5-|
G|----------------|------------------7-------|---------10-9-7-5---5-|
C|-----0----------|----------0---------------|------------0---------|
G|----------0-----|------------------0-------|------------------0---|
C|-0--------------|-0------------------------|-0--------------------|

E|-------------------------------|---------------------|
B|---------5--------3------------|-3----------s5-3-5-6-|
G|---0-0-0-5--0-0-0-3--0-0-0-0-0-|-2--0-0-0-0----------|
C|---------0---------------------|-5--------0----------|
G|------------------0------------|---------------0-----|
C|-0-----------------------------|-0-------------------|

E|---------3-4-1-3-0-|-----------------|------------------------|
B|---------3---------|-3h5p3-----------|--------3h5-3---3---3p1-|
G|---0-0-0-4---------|-------5---3---3-|--5p3-5-------5---5-----|
C|---------0---------|---------0-------|--------0---------------|
G|-------------0-----|-------------0---|----------------0-------|
C|-0-----------------|-0---------------|-0----------------------|

      V Λ Λ  Λ Λ V  Λ  Λ   Λ Λ Λ V Λ  Λ V Λ V Λ V Λ V Λ                 
E|------------0-0-0--0--0-|---0-0-0-0--0-0-0---0-0-0-0-0-|
B|-3p1-0-0-0--1-1-1--1--1-|---1-1-1-1--1-1-1-1-1-1-1-1-1-|
G|-----0-0-0--0-0-0--0--0-|---0-0-0-0--0-0-0-0-0-0-0-0-0-|
C|------------0-0-0--0--0-|-0-0-0-0-0--0-0-0-0-0-0-0-0-0-|
G|-------------------0----|-0-------0--0-0-0-0-0-0-0-0-0-|
C|-0----------------------|-0-------0--------------------|

               ^
E|--------------0--0--0-|---0-1-1-1-3---|------------5-4---4-5-7-8-|
B|-3--3-3-3--3--0--0--0-|-3-0-1-1-1-3-5-|----------5-5-5-7-4-4-5-5-|
G|-2--2-2-2--2--0--0--0-|-2-0-2-2-2-4-4-|-4--4-4-4-4-4-4-4-4-4-4-4-|
C|-5--5-5-5--5--0--0--0-|-5---0-------4-|-4--4-4-4-4-4-4-4-4-4-4-4-|
G|-0--0-0-0--0--0--0----|-0---0-------4-|-4--4-4-4-4-4-4-4-4-4-4-4-|
C|-0--0-0-0-----0--0----|-0---0-------4-|-4--4-4-4-4-4-4-4-4-4-4-4-|

E|-7-------8-10-8-7-Χ--Χ-Χ-|-4-5-7---8-10-8-7-Χ--Χ-Χ-|-4---4--4-------Χ-Χ-Χ-Χ|
B|-5---0---7-7--7-7-10-8-7-|-5-5-5---7-7--7-7-10-8-7-|-5-5-5--5-------3-Χ-3-5|
G|-4---0---7-7--7-7-7--7-7-|-4-4-4---7-7--7-7-7--7-7-|-4-4-4--4-------2-5-2-4|
C|-4-4-0-0-7-7--7-7-7--7-7-|-4-4-4-0-7-7--7-7-7--7-7-|-4-4-4--4-0-0-2-2-2-2-4|
G|-4-4---0-0-0--0-0-0--0-0-|-4-4-4-0-0-0--0-0-0--0-0-|-4-4-4--4-0-0-2-2-2-2-4|
C|-4-4---0-0-0--0-0-0--0-0-|-4-4-4-0-0-0--0-0-0--0-0-|-4-4-4--4-0-0-0-2-2-2-4|

               ^                      ^                      ^ 
E|-4--4-4-4-4---1-3-1-0-|-4--4-4-4-4---Χ-Χ-Χ-Χ-|-4--4-4-4-4---2-4-2-4--|
B|-5--5-5-5-5---1-1-1-1-|-5--5-5-5-5---3-Χ-3-5-|-5--5-5-5-5---3-3-3-5--|
G|-4--4-4-4-4---0-0-0-0-|-4--4-4-4-4---2-5-2-4-|-4--4-4-4-4---2-2-2-4--|
C|-4--4-4-4-4-0-0-0-0-0-|-4--4-4-4-4-0-2-2-2-4-|-4--4-4-4-4-0-2-2-2-4--|
G|-4--4-4-4-4-0-Χ-Χ-Χ-Χ-|-4--4-4-4-4-0-2-2-2-4-|-4--4-4-4-4-0-2-2-2-4--|
C|-4--4-4-4-4-0-2-2-2-2-|-4--4-4-4-4-0-2-2-2-4-|-4--4-4-4-4-0-2-2-2-4--|

               ^
E|-4--4-4-4-4-----0-----|---------s6--------4--------|
B|-5--5-5-5-5---3-3-3-1-|---------s7--------5--------|
G|-4--4-4-4-4---0-0-0-0-|---------s6--------4--------|
C|-4--4-4-4-4-0-5-5-5-0-|-0--0-0-0-0--0-0-0-0--0-0-0-|
G|-4--4-4-4-4-0-0-0-0-0-|-0--0-0-0-0--0-0-0-0--0-0-0-|
C|-4--4-4-4-4-0---------|-0--0-0-0-0--0-0-0-0--0-0-0-|

E|---------s6--------4----------|-0-|
B|---------s7--------5----------|-1-|
G|---------s6--------4----------|-0-|
C|-0--0-0-0-0--0-0-0-0-0-0-0-0-0|-0-|
G|-0--0-0-0-0--0-0-0-0-0-0-0-0-0|-0-|
C|-0--0-0-0-0--0-0-0-0-0-0-0-0-0|-0-|

Colaboração e revisão:
  • Luis siqueira
1.617 exibições
    • ½ Tom
    • A
    • Bb
    • B
    • C
    • Db
    • D
    • Eb
    • E
    • F
    • F#
    • G
    • Ab
  • Adicionar à lista

    0 comentários

    Ver todos os comentários

    Conseguiu tocar?

    0 Tocaram 0 Ainda não

    Grave um vídeo tocando Bolero e nos envie!

    00:00 / 00:00
    outros vídeos desta música
    repetir qualidade Automático
    Outros vídeos desta música
    00:00 / 00:00
    Automático

    Cifra Club Pro

    Aproveite o Cifra Club com benefícios exclusivos e sem anúncios
    Cifra Club Pro
    Aproveite o Cifra Club com benefícios exclusivos e sem anúncios
    OK