Cifra Club

Aprenda

My Immortal

Sungha Jung

Cifra: Principal (violão e guitarra)
tom: A (forma dos acordes no tom de G) Capotraste na 2ª casa
INTRO

1                           2
E|---------3-----5-----3-----|----------------7-------|
B|------3-----3-----3-----3--|---------7--------------|
G|---------------------------|------7-----7-----------|
D|---------------------------|------------------------| 2x
A|---------------------------|------------------------|
E|--3------------------------|--7~--------------------|

 3                                       4
E|--------------------------------|---------------------------|
B|--------------------------------|---------------------------|
G|------0--0-----0--------0-------|-------4-----------4-------|
D|---------0--0--------------0----|---4-----------4-----------|
A|---------------------2--------2-|--(2)------2---------------|
E|--3---------------3-------------|---------------------------|
I'm so tired of being here

 5                                            6
E|----------------------------------|-------------------------|
B|----------------------------------|-------------------------|
G|-----0---0------0--------0--------|-----4-----5-4~2---------|
D|-----0-------0--------------0-----|--4---------------5~-----|
A|--------(2)-----------2--------(2)|--2-----2----------------|
E|--3----------------3--------------|-------------------------|
Suppressed by all my childish fears

7                                      8
E|---------------------------|----------------------------------|
B|----(3)--3--1~0------------|---(3)--3-------------------------|
G|---------0------------0----|----4------5L4-----2--4-5L4-------|
D|-----0-------------0-------|----------------------------------|
A|---------------------------|--2-----------~2------------------|
E|--3-------------3----------|----------------------------------|
And if you have to leave    I wish that you would just leave


9                                                                             10
E|------------------------------------------|----------------------2~3--3-|
B|-----(3)--3--1~~0-------------------------|-----3--3--3--3--------------|
G|----------0--------------0----------------|-------------------4---------|
D|------0---------------0-----0-------------|-----4-----------4-----------|
A|------------------------------------------|--2-----------2--------------|
E|--3----------------3----------------------|-----------------------------|
Cause your presence still lingers here  And it won't leave me alone

11                                           12
E|----------------2--2--2--2--2L3-3|--------------2--2--2--2-2L3--|
B|---------0------------3--3--3----|--------3-----------3--3--3---|
G|-------0-----0-------------------|------0----0------------------|
D|----2----------------------------|----2-------------------------|
A|----------------------2----------|--------------------2---------|
E|--0------------------------------|--0---------------------------|
These wounds won't seem to heal  This pain is just too real


13                              `       14   ↑
E|-----------3-----2--2--2--2--2-2-|---2--2--2--3------5--5--3-|
B|-----------------------3--3--3---|---3--3--3--3------3-----0-|
G|--------0-----0--------------0---|---------------------------|
D|-----2---------------------------|---0------------0----------|
A|-----------------------2-----x---|---------------------------|
E|--0--------------------------x---|---------------------------|
There's just too much that time cannot erase

CHORUS :
15                                            16
E|-----------3---2---3--3-------|--5--3-3-2---3--2-----2p0----|
B|-----------0---3---3--3-----0-|--3--3-3-3---3--2--3---------|
G|--------0------0------0--0----|-----------------------------|
D|-----2-------------------0----|--0--------------------------|
A|---------------3------x--x----|---------2-------------------|
E|--0-------------------x--x----|-----------------------------|
When you cried I'd wipe away all of your tears

17                                             18
E|-----------3---2---3----3L5---|--5--3-3-2---3--2-----2p0----|
B|-----------0---3---3----3-----|--3--3-3-3---3--3--3---------|
G|--------0------0------0-------|-----------------------------|
D|-----2------------------------|--0--------------------------|
A|---------------3--------------|---------2-------------------|
E|--0---------------------------|-----------------------------|
When you'd scream I'd fight away all of your fears

19                                             20
E|-----------3---2---3----3L5---|--5--3-3-2---3--2-----2h3----|
B|-----------0---3---3----3-----|--3--3-3-3---3--3--3--3------|
G|--------0------0------0-------|-----------------------------|
D|-----2------------------------|--0--------------------------|
A|---------------3--------------|---------2-------------------|
E|--0---------------------------|-----------------------------|
I held your hand through all of these years

21                                    22
E|-----------3---2-----3--------|--3h2~------------3h2--------|
B|-----------3---3-----3-----3--|--3------------3--3----3-----|
G|--------0------0--------0-----|-------------2------------2--|
D|-----2------------------------|--0--------------------------|
A|---------------3--------------|-----------------------------|
E|--0---------------------------|-----------------------------|
But you still have

23                     ↑                                24
E|--------2-----------3--3------|--------3-----5-----3--------|
B|--------3---------------------|-----3-----3-----3-----0-----|
G|--------2---------------------|-----------------------------|
D|---0--------------------------|-----------------------------|
A|------------------------------|-----------------------------|
E|------------------------------|--3--------------------------|
All of me


25                 26
E|---------------7-|---------3------5-----3----------|
B|---------7-------|------3-----3------3------3------|
G|-----7-------7---|---------------------------------|
D|------------------|---------------------------------|
A|-----------------|---------------------------------|
E|--s7-------------|---s3----------------------------|

27                      28
E|--------------7--|----------------------------------------------|
B|---------7-------|----------------------------------------------|
G|------7------7---|---------0------0----------0------------------|
D|------------------|-----0-------0-------------------0------------|
A|-----------------|---------2-------------2--------------(2)-----|
E|--s7-------------|--3-----------------3-------------------------|
                   You used to captivate me

29                           30
E|----------------------------|------------------------------------|
B|----------------------------|------------------------------------|
G|------4-----2---4p2--4-5L4--|-----0--0-----0---------0-----------|
D|--4-------------------------|-----0-----0----------------0-------|
A|--2------2------------------|--------2------------2----------(2)-|
E|----------------------------|--3---------------3-----------------|
By your resonating light        Now I'm bound by the life

31                  32
E|----------------------|--------------------------------------|
B|----------------------|-----3--3--1~0----------0-------------|
G|------4--4--5-4p2-----|--------0--0----------------0---------|
D|--4----------------5~-|-----0---------------0----------0-----|
A|--2-------------------|--------------------------------------|
E|----------------------|--3--------------3--------------------|
you left behind         Your face it haunts
33                      34
E|------------------------|-----------------------------------|
B|-----3--3---------------|------3--3--1--0---------0---------|
G|-----4------5L4-----2-4-|---------0------------0---------0--|
D|----------------~2------|------0------------0---------0-----|
A|--2---------------------|-----------------------------------|
E|------------------------|--3------------3-------------------|
My once pleasant dreams   Your voice it chased away

35                                36
E|-------------------------2h3--3-|-----------------2--2--2--2--2h3--3---|
B|------3-----3---3--------3------|-----------0-----------3--3--3--------|
G|---------4--4---4-----4---------|--------0-----0-----------------------|
D|------4------------4------------|-----2--------------------------------|
A|--2-------------2---------------|---------------------2----------------|
E|--------------------------------|--0-----------------------------------|
All the sanity in me            These wounds won't seem to heal

37                                           38
E|------------------2--2--2--2-2h3--3-|---------------2--2--2--2--2--2---|
B|-----------3------------3--3--3-----|---------3-----------3--3--3------|
G|--------0------0--------------------|-------0-----0--------------------|
D|-----2------------------------------|-----2----------------------------|
A|------------------------2-----------|---------------------2-----x------|
E|--0---------------------------------|--0------------------------x------|
This pain is just too real                      There's just too much


39  ↑                               40
E|--2---2--2--3-----5----3-|-----------3--2-------3---3------------|
B|--3---3--3--3-----3------|-----------0--3-------3---3------------|
G|---------2---------------|--------0-----0-----------0--0--0------|
D|--0------------0---------|-----2-----------------------0---------|
A|---------x---------------|--------------3-----------x--x---------|
E|---------x---------------|--0-----------------------x--x---------|
that time cannot erase      When you cried I'd

41                                         42
E|--5----3--3---2-----3--2-----2p0-|-----------3---2----3-------3L5-------|
B|--3----3--3---3-----3--3--3------|-----------0---3----3-------3---------|
G|---------------------------------|--------0------0--------0-------------|
D|---------------------------------|-----2------------------0-------------|
A|--0-----------2------------------|---------------3--------x-------------|
E|---------------------------------|--0---------------------x-------------|
I'd wipe away all of your tears  When you'd scream, I'd

43                                        44
E|--5----3--3---2-----3--2----2p0--|-----------3---2----3---3---3----------|
B|--3----3--3---3-----3--3--3------|-----------0---3----3---3---3----------|
G|---------------------------------|--------0------0--------0---0--0-------|
D|--0------------------------------|-----2---------------------------------|
A|--------------2------------------|---------------3--------x---x----------|
E|---------------------------------|--0---------------------x---x----------|
fight away all of your fears     I held your

45                                         46                         ↑
E|--5----3--3---2-----3--2----2h3--|-----------3---2----3---3--------------|
B|--3----3--3---3-----3--3--3-3----|-----------3---3----3---3--------------|
G|---------------------------------|--------0------0--------0---(0)--------|
D|--0------------------------------|-----2------------------0--------------|
A|--------------2------------------|---------------3-----------------------|
E|---------------------------------|--0------------------------------------|
hand through all of these years         But you still

47                                         48
E|--3p2~----------------3p2--------|--------------2----------3--3------|
B|--3----------------3-------3-----|--------------3--------------------|
G|----------------2-------------2--|--------------2--------------------|
D|--0------------------------------|--0--------------------------------|
A|---------------------------------|-----------------------------------|
E|---------------------------------|-----------------------------------|
Have                                     All of me

CHORUS
49                                                       50
E|--3--------------------------2--2--2--0------|--2---------3--3---3--3-----3L5--5---|
B|--0---------1--1-----3---3---3--3--3--3--(3)-|--3---------3--3---3--3--3--3---(0)-0|
G|--0---------0--0-----0---0------0--0-(0)-(0)-|--------(0)-----------0-(0)-----(0)-0|
D|--------0---------0-------------0------------|-----(0)-----------------------------|
A|--3---------3--x-----3-----------------------|--2--------(2)-2-----------------x---|
E|-----x---------x-----------------------------|---------------------------------x---|
I've tried so hard to                           tell my







51                                                52
E|--5---5--5--5--3-----3--3-(3)--2-------|--2p0--0--3--0---0--0--0-----2-----|
B|--0---0--0--0--0-----0--0-(0)--3---3---|--3----3--3--3---3--3--3--3--0-----|
G|------0--0--0--------0--0------0---0-0-|--0----0-----0---0-----0-----0-----|
D|-------------------------------0-------|--x----------x---------x-----------|
A|---------------------------------------|--3----------3---------------------|
E|--0------------------------------------|-----------------------------------|
self that you're                        gone                   but

53                                          54
E|--3--------3-----3L7--7-----7--5--|--5-----5-------5p3-(3)---------3--2----|
B|--1--------1-----1----5-----5--0--|--0-----0-------0---(0)-(0)-----0--0----|
G|------(0)--0--0----------5--5-----|-----0--0---(0)-0---(0)-(0)-(0)-0-------|
D|------(2)----------------5--5-----|-----x-----------------------x----------|
A|--0--------------0----0-----------|-----2----x-----------------(2)-x-------|
E|----------------------------------|--0-------x-----0---------------x-------|
But though you're still                 with me

55                                   ↑   56
E|--3--3--3--3L5--5----5--5--5--3--|--5L7~----7--7------5----5--5--5--3---3---------|
B|--3--3--3--3---------0--0--0--3--|----------5--5------3----3--3--3--0---0---------|
G|--0--0---------------0--0-----0--|-------------5-----------2--2-----0---0---------|
D|------------------------------x--|--0----0--------(0)-0-------------0---0---------|
A|--3-------------3-------------3--|------------------------------------------------|
E|---------------------------------|------------------------------------------------|
I've    been                  a    lone         all             along
STRUMMING PART!
57                                           58
E|--3---3-(3)-3-----3--3--3--3-----3-|---3---3--3-(3)-3----3---3--3--3--3--3----|
B|--3---3-(3)-3-----3--3--3--3-(3)-3-|---3---3--3-(3)-3----3---3--3--3--3--3----|
G|--0---0-(0)-0-----0--0--0--0-(0)-0-|---2---2--2-(2)-0----0---0--0--0--0--0----|
D|--2---2-----2-----2-----2--2-(2)---|---0---0--------0----0------0-------------|
A|--2---------3-----------3----------|--(0)-----------2-------------------------|
E|--0--------------------------------|------------------------------------------|

59                                         60
E|--3---3-(3)-3----3--3--3--3-----3-|---3----3--3-(3)--3----3---3--3--3--3--|
B|--3---3-(3)-3----3--3--3--3-(3)-3-|---3----3--3-(3)--3----3---3--3--3--3--|
G|--0---0-(0)-0----0--0--0--0-(0)-0-|---2----2--2-(2)--0----0---0--0--0--0--|
D|--2---2-----2----2-----2--2-(2)---|---0----0---------0----0------0--------|
A|--2---------3----------3----------|--(0)-------------2--------------------|
E|--0-------------------------------|---------------------------------------|

61                                           62
E|------------3---2------3---3--------|--5-----3--3--2----3---2-----2p0----|
B|---------3--3---3------3---3--------|--3-----3--3--3----3---3-----3------|
G|---------0--0---0----------0---0--0-|--------------------------0---------|
D|-------------------------------0----|--0---------------------------------|
A|------------x---3----------x---x----|--------------2--------x------------|
E|--0---0-----x--------------x---x----|-----------------------x------------|

63                                           64
E|------------3---2------3---3---3L5--|--5----3--3--2------3--2-----2p0--|
B|------------0---3------3---3----3---|--3----3--3--3------3--3--3-------|
G|---------0------0----------0--------|-----------------------0----------|
D|------2-----------------------------|--0-------------------------------|
A|----------------3----------x--------|-------------2--------------------|
E|--0------------------------x--------|----------------------------------|

65                                      66
E|------------3--2-----3--3--3-----|--5----3--3--2------3--2-----2h3--|
B|------------0--3-----3--3--3-----|--3----3--3--3------3--3--3--3----|
G|---------0-----0--------0--0--0--|-----------------------0----------|
D|------2--------------------------|--0-------------------------------|
A|---------------3--------x--x-----|-------------2---------x----------|
E|--0---------------------x--x-----|-----------------------x----------|

67                                       68
E|------------3--2-----3-----3-----|--3p2~---------------3p2--------|
B|------------3--3-----3-----3-----|--3----------------3------3-----|
G|---------------0-----------0-(0)-|---------(2)----2------------2--|
D|------2--2-----------------0-----|--0-----------------------------|
A|---------------3-----------------|--------------------------------|
E|--0------------------------------|--------------------------------|

69               ↑                     70
E|---------------2------3---3--|---------3-------5-------3-------|
B|---------------3-------------|-----3-------3-------3-------3---|
G|---------------2-------------|---------------------------------|
D|---0-------------------------|---------------------------------|
A|-----------------------------|---------------------------------|
E|-----------------------------|--3------------------------------|
71                 72
E|-----------------7---|----------3-------5-------3------|
B|---------7-----------|------3-------3-------3------3---|
G|-----7-------7-------|---------------------------------|
D|---------------------|---------------------------------|
A|---------------------|---------------------------------|
E|--7~~~~~~~~~~~~~~~~~~|--3~~~~~~~~~~~~~~~~~~~~~~~~~~~~~~|
73                 74
E|-----------------7---|----------3-------5-------3------|
B|---------7-----------|------3-------3-------3------3---|
G|-----7-------7-------|---------------------------------|
D|---------------------|---------------------------------|
A|---------------------|---------------------------------|
E|--7~~~~~~~~~~~~~~~~~~|--3~~~~~~~~~~~~~~~~~~~~~~~~~~~~~~|
75                 76
E|-----------------7---|----------3-------5-------3------|
B|---------7-----------|------3-------3-------3------3---|
G|-----7-------7-------|---------------------------------|
D|---------------------|---------------------------------|
A|---------------------|---------------------------------|
E|--7~~~~~~~~~~~~~~~~~~|--3~~~~~~~~~~~~~~~~~~~~~~~~~~~~~~|
77                 78
E|-----------------7---|---------------------------------|
B|---------7-----------|---------------------------------|
G|-----7-------7-------|---------------------------------|
D|---------------------|--0------------------------------|
A|---------------------|--2------------------------------|
E|--7~~~~~~~~~~~~~~~~~~|--3------------------------------|
Colaboração e revisão:
  • Caique Dourado
11.878 exibições
    • ½ Tom
    • A
    • Bb
    • B
    • C
    • Db
    • D
    • Eb
    • E
    • F
    • F#
    • G
    • Ab
  • Adicionar à lista

    0 comentários

    Ver todos os comentários

    Conseguiu tocar?

    4 Tocaram 1 Ainda não

    Grave um vídeo tocando My Immortal e nos envie!

    00:00 / 00:00
    outros vídeos desta música
    repetir qualidade Automático
    Outros vídeos desta música
    00:00 / 00:00
    Automático

    Cifra Club Pro

    Aproveite o Cifra Club com benefícios exclusivos e sem anúncios
    Cifra Club Pro
    Aproveite o Cifra Club com benefícios exclusivos e sem anúncios
    OK