Cifra Club

Aprenda

River Flows In You

Sungha Jung

Cifra: Principal (violão e guitarra)
tom: F# (forma dos acordes no tom de E) Capotraste na 2ª casa
Capo. fret 2 (you can also play it without capo )

E|--3--2--3--2-|-3-----3---------|--------3--2--3--2-|-3-----3--------|
B|--------3----|----3-----1--(1)-|----0---------3----|----3-----1-----|
G|-----0-----0-|----0------------|-0---------0-----0-|----0-----------|
D|--2----------|-----------------|--------2----------|----------------|
A|-------------|-3---------------|-------------------|-3--------------|
E|-------------|-----------------|-------------------|----------------|

E|-----------3--2--3-|------2--3--------3-|----------------|----------|
B|--(1)---0--------3-|---3-----3------3---|-----3--------1-|--3--0----|
G|------0-------0----|------0-------0-----|---0-----3^4----|--0-----2-|
D|-----------2-------|-2------------------|----------------|--0-------|
A|-------------------|------------3-------|-3--------------|----------|
E|-------------------|--------------------|---------3------|----------|

E|----------------|--------------|--------------|--------------|
B|----------------|---------0----|----0^1--3----|----1--0------|
G|-----0-----0----|----0^2-------|-0--0---------|-0--------2---|
D|--0-----4-------|-2----------2-|----2-------0-|------------0-|
A|--------------2-|---------3----|--------------|--------------|
E|-----------0----|--------------|---------3----|--------------|

E|-----3--2--3-|------2--3--------3-|----------------|-----7--5----5-|
B|-----------3-|---3-----3------3---|-----3--------1-|--3----------3-|
G|--------0----|------0-------0-----|---0-----3^4----|--0------------|
D|--4--2-------|-2------------------|----------------|--0-----0--0---|
A|-------------|------------3-------|-3--------------|---------------|
E|-------------|--------------------|---------3------|---------------|

E|--7--5--3--2--3----|--------------|---------------|-----------------|
B|-------------------|---------0----|----0--1--3----|---1--0----------|
G|-------------------|-0--0^2--0----|-0--0----------|-0-------2-----2-|
D|-----------------2-|------------2-|----2--------0-|---------0--0----|
A|-------------------|---------3----|---------------|-----------------|
E|--------------0----|--------------|----------3----|-----------------|

chorus
E|--3^5--3--2--3----------|-3^5--3--2--3----------|
B|-------------------3----|-3----------------3----|
G|-------------------0----|---------------0-------|
D|----------------2-------|------------2--------2-|
A|------------------------|-----------------------|
E|-------------0--------0-|-----------------------|

E|--3^5--3--2--3--5--7--8|-10--7-----------------|
B|--3--------------------|--------10--8--7-------|
G|-----------------------|------------------7----|
D|-----------------------|---------------0-----0-|
A|-----------------------|-----------------------|
E|-------------3---------|-----------------------|

E|--(3)3^5--3--2--3----------|-(3)3^5--3--2--3----------|
B|----------------------3----|----3----------------3----|
G|----------------------0----|------------------0-------|
D|-------------------2-------|---------------2--------2-|
A|---------------------------|--------------------------|
E|----------------0--------0-|--------------------------|

E|--(3)3^5--3--2--3--5--7--8|-10--7-----------------|-------|
B|----3---------------------|--------10--8--7-------|-------|
G|--------------------------|------------------7----|-------|
D|--------------------------|---------------0-------|--7^4--|
A|--------------------------|-----------------------|-------|
E|----------------3---------|-----------------------|-------|

E|----------3--2--3-|------2--3--------3-|----------------|----------|
B|--------0-------3-|---3-----3------3---|-----3--------1-|--3--0----|
G|-----0-------0----|------0-------0-----|---0-----3^4----|--0-----2-|
D|--4-------2-------|-2------------------|----------------|--0-----0-|
A|------------------|------------3-------|-3--------------|----------|
E|------------------|--------------------|---------3------|----------|

E|----------------|-----------------|----------------------|
B|----------------|---------0-------|----0----0--1--3----0-|
G|-----0-----0----|----0^2--0-----0-|-2-------0-----0----0-|
D|--0-----4-------|-2----------2----|---------2--------0---|
A|--------------2-|---------3-------|------3---------------|
E|-----------0----|-----------------|---------------3------|

E|-----------------------|---------|
B|-1--3-----1--0-------1-|-0-------|
G|----0-----0-----2------|----2----|
D|----------------0--0---|-------4-|
A|-----------------------|---------|
E|-------3---------------|---------|

E|--3--2--3-|------2--3--------3-|----------------------|7--5---5^7--5--3--2|
B|--------3-|---3-----3------3---|-----3----------1---3-|-------------------|
G|-----0----|------0-------0-----|---0-------3^4------0-|-------------------|
D|--2-------|-2------------------|--------0-----------0-|---0--0------------|
A|----------|------------3-------|-3--------------------|-------------------|
E|----------|--------------------|-----------3----------|-------------------|

E|--3------------|----------------------|------------------------|----------|
B|---------------|-0----------0----0--1-|-3-----0--1--3-----1--0-|----------|
G|--------0--0^2-|-0-----0^2-------0----|-0-----0-----0-----0----|-2-------2|
D|-----2---------|----2------------2----|----0-------------------|-0--0--0--|
A|---------------|-3------------3-------|------------------------|----------|
E|--0------------|----------------------|-3--------------3-------|----------|

chorus
E|--3^5--3--2--3----------|-3^5--3--2--3----------|
B|-------------------3----|-3----------------3----|
G|-------------------0----|---------------0-------|
D|----------------2-------|------------2--------2-|
A|------------------------|-----------------------|
E|-------------0--------0-|-----------------------|

E|--3^5--3--2--3--5--7--8|-10--7-----------------|
B|--3--------------------|--------10--8--7-------|
G|-----------------------|------------------7----|
D|-----------------------|---------------0-----0-|
A|-----------------------|-----------------------|
E|-------------3---------|-----------------------|

E|--(3)3^5--3--2--3----------|-(3)3^5--3--2--3----------|
B|----------------------3----|----3----------------3----|
G|----------------------0----|------------------0-------|
D|-------------------2-------|---------------2--------2-|
A|---------------------------|--------------------------|
E|----------------0--------0-|--------------------------|

E|--(3)3^5--3--2--3--5--7--8|-10--7-----------------|-------|
B|----3---------------------|--------10--8--7-------|-------|
G|--------------------------|------------------7----|-------|
D|--------------------------|---------------0-------|--7^4--|
A|--------------------------|-----------------------|-------|
E|----------------3---------|-----------------------|-------|

E|--------3--2-|-2-------------|----0----------|----------0----|
B|-----0-------|----------5--3-|-3-----1-------|-------3-----1-|
G|--0----------|-------0-------|-0-------------|----0--4-----0-|
D|--2----------|----2----------|-2--------2----|-2-------------|
A|-------------|---------------|-3-----------3-|-------2-----0-|
E|--0----------|-0-------------|---------------|---------------|

E|----------------------|---------------|---------------|---3--2--2-|
B|--0--0--0-------------|----0----------|-------------0-|-0---------|
G|-----------2--2--2----|----0----------|----0-----0----|---2-------|
D|--------------------0-|-0--0--0-----0-|-0-----4--2----|---------2-|
A|----------------------|---------------|---------------|-----------|
E|-----------------3----|----------3----|---------------|-----------|

E|----0--------0----|---------------|-------------------------------|
B|-0-----3--3-------|-------------3-|-1--0--0--1--------------------|
G|------------------|----------0----|-------------------------------|
D|----------------2-|-2-----2-------|-------------2-----2--5--5-----|
A|----------3-------|----3--------2-|-------0--------3-----5-----5--|
E|------------------|---------------|-------------------------------|

chorus
E|--3^5--3--2--3----------|-3^5--3--2--3----------|
B|-------------------3----|-3----------------3----|
G|-------------------0----|---------------0-------|
D|----------------2-------|------------2--------2-|
A|------------------------|-----------------------|
E|-------------0--------0-|-----------------------|

E|--3^5--3--2--3--5--7--8|-10--7-----------------|
B|--3--------------------|--------10--8--7-------|
G|-----------------------|------------------7----|
D|-----------------------|---------------0-----0-|
A|-----------------------|-----------------------|
E|-------------3---------|-----------------------|

E|--(3)3^5--3--2--3----------|-(3)3^5--3--2--3----------|
B|----------------------3----|----3----------------3----|
G|----------------------0----|------------------0-------|
D|-------------------2-------|---------------2--------2-|
A|---------------------------|--------------------------|
E|----------------0--------0-|--------------------------|

E|--(3)3^5--3--2--3--5--7--8|-10--7--------------------|-------------------3-|
B|----3---------------------|--------10--8--7----------|---------------------|
G|--------------------------|------------------7-------|----0----------------|
D|--------------------------|---------------0-----7--4-|-4--4-----4-----4----|
A|--------------------------|--------------------------|-------2-----2-------|
E|----------------3---------|--------------------------|----0-----0----------|
Colaboração e revisão:
  • Carol Zanardo
  • Phelps Soares
47.881 exibições
    • ½ Tom
    • A
    • Bb
    • B
    • C
    • Db
    • D
    • Eb
    • E
    • F
    • F#
    • G
    • Ab
  • Adicionar à lista

    0 comentários

    Ver todos os comentários

    Conseguiu tocar?

    13 Tocaram 5 Ainda não

    Grave um vídeo tocando River Flows In You e nos envie!

    00:00 / 00:00
    outros vídeos desta música
    repetir qualidade Automático
    Outros vídeos desta música
    00:00 / 00:00
    Automático

    Cifra Club Pro

    Aproveite o Cifra Club com benefícios exclusivos e sem anúncios
    Cifra Club Pro
    Aproveite o Cifra Club com benefícios exclusivos e sem anúncios
    OK