Cifra Club

Terra Prometida

Super Nova Vida

Cifra: Principal (violão e guitarra)
tom: F
Intro: F (palm mute)

F
No deserto Deus está comigo
                            Bb5         F
Tua nuvem meu senhor me guiará,me guiará
F
Perseguido mas não abatido
                    Bb5
Vou ouvir a tua voz, eu vou passar
          F
Por este mar
C        Bb5         F
Esperando eu não vou ficar
C          Bb5         F
Esta terra eu quero conquistar
F
Eu vou, eu vou,eu vou
F          C
Vou chegar naquela terra prometida
Dm              Bb5
O deserto não é meu lugar
Dm         C         Bb5
40 anos esperando eu não vou ficar
Bb5
Não vou, não vou,não vou (2x)

Intrumental (Dm  Bb5  F  C) (palm mute) (2x)


E|------------------------------------------------------------|
A|------------------------------------------------------------|
D|------------------------------------------------------------|
G|----10------10------10--------------------------------------|
B|-------10-------11------10---11---13---11---10--------------|
E|------------------------------------------------------------|

E|--------------------------------------------------------------|
A|--------------------------------------------------------------|
D|--------------------------------------------------------------|
G|----10-------10------10---------------------------------------|
B|---------10------11-------10---11---13------------13----------|
E|------------------------------------------13--12-------15/17--|

Dm                 C     Bb5
Sou mais que vencedor Ohhh! (4x)

F          C
Vou chegar naquela terra prometida
Dm              Bb5
O deserto não é meu lugar (volta o refrão todo)
Dm              C               Bb5
40 anos esperando eu não vou ficar (2x)    Fim: F
00:00 / 00:00
Outros vídeos desta música
Repetir
Outros vídeos desta música
Compositor não encontrado.
Colaboração e revisão:
  • Nathan Dallaqua
  • Bruno Lellis
2.195 exibições
    • ½ Tom
    • A
    • Bb
    • B
    • C
    • Db
    • D
    • Eb
    • E
    • F
    • F#
    • G
    • Ab
  • Adicionar à lista

    0 comentários

    Ver todos os comentários

    Entre para oCifra Club PRO

    Tenha acesso a benefícios exclusivos no App e no Site

    • Chega de anúncios

    • Prioridade de compra em lançamentos

    • Mais recursos no app do Afinador

    • Atendimento Prioritário

    • Descontos nos produtos Cifra Club

    • Ajude a produzir mais conteúdo

    00:00 / 00:00

    Cifra Club Pro

    Aproveite o Cifra Club com benefícios exclusivos e sem anúncios
    Cifra Club Pro
    Aproveite o Cifra Club com benefícios exclusivos e sem anúncios
    OK