Cifra Club

Amianto

Supercombo

Cifra: Principal (violão e guitarra)
exibições 528.681
Tom: Dm
Primeira Parte:

E|-10--10-8-10-8------8-8-10----------------------------|
B|---------------10-8--------10-8-----------------------|
G|--------------------------------10-7------------------|
D|------------------------------------------------------|
A|------------------------------------------------------|
E|------------------------------------------------------|

 Dm             F
Moça, sai da sacada
              C            Gm        Dm
Você é muito nova pra brincar de morrer
              F               C
Me diz o que há, o quê que a vida 
      Gm        Dm
Aprontou dessa vez?

( F  C  Bb9 )

Segunda Parte:

E|-----5------4-----------------------------------------|
B|---6------6-------------------------------------------|
G|-7------7---------------------------------------------|
D|------------------------------------------------------|
A|------------------------------------------------------|
E|------------------------------------------------------|

 Dm/A
Venha, desce daí

Deixa eu te levar pra um café
           Dm
Pra conversar
      F
Te ouvir
      C            Bb9
E tentar te convencer

Refrão:

       Bb9         Dm
Que a vida é como mãe
              C               Gm
Que faz o jantar e obriga os filhos a
   Bb9        Dm
Comer os vegetais
      C            Gm  Am  Bb  C
Pois sabe que faz bem
     Bb9          Dm
E a morte é como pai
             C              Gm
Que bate na mãe e rouba os filhos do
    Bb9        Dm
Prazer de brincar
         C
Como se não houvesse amanhã

( Dm  F  C  Bb9 )

Repete a Segunda Parte:

 Dm/A
Moça, não olha pra baixo
                               Dm
Aí é muito alto pra você se jogar
          F
Vou te ouvir
      C            Bb9
E tentar te convencer 

(Somos programados pra cair)

Refrão Final:

Parte 1 de 2 (3x)

E|-10--10-8-10-8------8-8-10----------------------------|
B|---------------10-8--------10-8-----------------------|
G|--------------------------------10-7------------------|
D|------------------------------------------------------|
A|------------------------------------------------------|
E|------------------------------------------------------|

Parte 2 de 2

E|------------------------------------------------------|
B|-------8h10--8-----8h10-------------------------------|
G|-7-10-----------10------7-----------------------------|
D|------------------------------------------------------|
A|------------------------------------------------------|
E|------------------------------------------------------|

       Bb9         Dm
Que a vida é como mãe
              C               Gm
Que faz o jantar e obriga os filhos a
   Bb9        Dm
Comer os vegetais
      C            Gm  Am  Bb  C
Pois sabe que faz bem
     Bb9          Dm
E a morte é como pai
             C              Gm
Que bate na mãe e rouba os filhos do
    Bb9        Dm
Prazer de brincar
         C                  Bb9
Como se não houvesse amanhã

Mas, tudo bem

Nem sempre estamos na melhor

( Dm  F  C  Bb9 ) (2x)
( Dm  F )

 Dm                 F
Moço, ninguém é de ferro
             C          Bb9
Somos programados pra cair

0 comentários

mostrar mais comentários

Conseguiu tocar?

172tocaram12ainda não

Grave um vídeo tocando Amianto e mande pra gente!

00:00 / 00:00
outros vídeos desta música
repetirqualidadeAutomático
Outro vídeos desta música
    00:00 / 00:00
    Capítulos
    • Tocando a música
    • Dicas Iniciais / Equipamentos
    • Acordes da Primeira Parte
    • Tocando a Primeira Parte
    • Ritmo da Primeira Parte
    • Primeira Parte
    • Acordes da Segunda Parte
    • Tocando a Segunda Parte
    • Ritmo da Segunda Parte
    • Segunda Parte
    • Acordes do Refrão
    • Tocando o Refrão
    • Ritmo do Refrão
    • Refrão Final - Parte 1 de 2
    • Refrão Final - Parte 2 de 2
    • Encerramento
    • Ficha Técnica
    OK