Cifra Club

Fundo do Mar

Supercombo

Cifra: Principal (violão e guitarra)
Selo Cifra Club: esta cifra foi revisada para atender aos critérios oficiais da nossa Equipe de Qualidade.
tom: A
Intro: F#m

    F#m      Bm       A      C#7     F#m     Bm      A      C#7
E|----------------------------------------------------------------|
B|-----------3-------2-------0------------------------------------|
G|---2-----4---4---2---2---1---1-----2----------------------------|
D|-4---4---------------------------4---4-----0---------------3----|
A|-----------------------------------------2---2-----4-----4---4--|
E|-------------------------------------------------5---5----------|

F#m  Bm       A          C#7
  Ai mais uma pane no painel
F#m          Bm           A
Quem mandou abrir as escotilhas
   C#7
No fundo do mar

( F#m Bm A C#7 )

F#m  Bm              A       C#7
Só reclama quem não sabe esperar
   F#m          Bm          A
Fica a mercê de toda a opressão 
       C#7       F#m
Que te impede de ser 
Bm      A    C#7
Teu oxigênio


     F#m        Bm        A        C#7
E|------5---------0------------------------------------|
B|--7-7---7---3-3---3-------0--------------------------|
G|----------------------2-2---2--1h2p1-----------------|
D|-------------------------------------3h4-------------|
A|-----------------------------------------------------|
E|-----------------------------------------------------|

D7M
Afundo com a tripulação
Bm7(9)
Sem fazer nada, sem fazer nada
D7M
Água nos meus pés, o sonar no dez
Bm7(9)
Sem ouvir nada, sem ouvir nada

( F#m  Bm  A  C#7 )

F#m        Bm        A        C#7       F#m  Bm  A  C#7
Atiro os torpedos no que se mover no radar
F#m    Bm           A         C#7
Sempre finjo que o alarme não tocou
        F#m        Bm      A         C#7
Só pra ninguém ver que eu já me afoguei 
F#m  Bm      A    C#7
  Há muito tempo


D7M
Afundo com a tripulação
Bm7(9)
Sem fazer nada, sem fazer nada
D7M
Água nos meus pés, o sonar no dez
Bm7(9)
Sem ouvir nada, sem ouvir nada

F#m        F#m/F
Afundo com a tripulação
F#m/E          D#m7/5-
Sem fazer nada, sem fazer nada
D7M             F#m             E
Sem fazer nada, sem fazer nada

( F#m  Bm  A  C#7 )

F#m      Bm           A         C#7
Somos um eco do que imaginamos ser
F#m      Bm           A         C#7
Somos um eco do que imaginamos ser

D7M
Afundo com a tripulação
Bm7(9)
Sem fazer nada, sem fazer nada
D7M
Água nos meus pés, o sonar no dez
Bm7(9)
Sem ouvir nada, sem ouvir nada
F#m        F#m/F
Afundo com a tripulação
F#m/E          D#m7/5-
Sem fazer nada, sem fazer nada
D7M             F#m             E
Somos um eco do que...
00:00 / 00:00
Outros vídeos desta música
Repetir
Outros vídeos desta música
17.260 exibições
    • ½ Tom
    • A
    • Bb
    • B
    • C
    • Db
    • D
    • Eb
    • E
    • F
    • F#
    • G
    • Ab
  • Adicionar à lista

Afinação da cifra

Afinador online

    0 comentários

    Ver todos os comentários

    Entre para o Cifra Club PRO

    Tenha acesso a benefícios exclusivos no App e no Site

    • Chega de anúncios

    • Mais recursos no app do Afinador

    • Atendimento Prioritário

    • Aumente seu limite de lista

    • Ajude a produzir mais conteúdo

    00:00 / 00:00

    Cifra Club Pro

    Aproveite o Cifra Club com benefícios exclusivos e sem anúncios
    Cifra Club Pro
    Aproveite o Cifra Club com benefícios exclusivos e sem anúncios
    OK