Cifra Club

O Guerreiro e a Selva

Supercombo

Cifra: Principal (violão e guitarra)
Selo Cifra Club: esta cifra foi revisada para atender aos critérios oficiais da nossa Equipe de Qualidade.
tom: Bb
[Intro]

   Gm        Bb/D Eb        F#° Gm7          F    Cm         Bb
E|-------x-------------x---------------x----------------x-------|
B|-----3-x-------------x-6--10------11-x-----10/--------x-6-----|
G|---3---x-3--5------8-x---------10----x-10-----------8-x----7/-|
D|-------x---------8---x---------------x------------8---x-------|
A|-------x----5--6-----x-6--9--10------x-10--8/---------x-------|
E|-3-----x-3-----------x---------------x----------8-----x-8--6/-|

Gm       Bb/D     Eb
Os lobos te encontraram
    Gm    F      Eb
E agora vai ter que encarar
Gm        Bb/D  Eb
Prepare e afia tua lança
  Gm       F       Eb              [Riff 2]
Acende o fogo pra noite não te sufocar

[Riff 2]

   Gm        Bb/D Eb        F#° 
E|-------x-------------x--------|
B|-----3-x-------------x-6--10/-|
G|---3---x-3--5------8-x--------|
D|-------x---------8---x--------|
A|-------x----5--6-----x-6--9/--|
E|-3-----x-3-----------x--------|

      Eb       Bb/D     Cm
Teus dentes têm que crescer
       Gm     Bb  F
Teu espírito acalma
   Eb            Bb/D  Cm
O mundo inteiro caça você
 Gm            Bb   F
Como tu vai contra-atacar

             Eb       Bb/D    Cm
Guerreiro, aqui é matar ou morrer
              Gm         Bb   F
Dormir com os dois olho aberto
    Gm [Riff Intro (1x)]
Selva

[Solo]

E|-----------------6---5---------|
B|------------6------6----4-6-3/-|
G|-7-3-3/5--7---7----------------|
D|-------------------------------|
A|-------------------------------|
E|-------------------------------|

Gm      Bb/D    Eb           Gm
O vento leva o cheiro do teu sangue
  F   Eb
Pros abutres no ar
Gm       Bb/D     Eb
Aperta a corda do arco e flecha
   Gm         F       Eb               [Riff 3]
E cruza os dedos pra você não ser o jantar

[Riff 3]

   Gm        Bb/D Eb        F#° Gm7          F    Cm     Bb
E|-------x-------------x---------------x--------------------|
B|-----3-x-------------x-6--10------11-x-----10/------------|
G|---3---x-3--5------8-x---------10----x-10-------8-x-8--7/-|
D|-------x---------8---x---------------x--------------------|
A|-------x----5--6-----x-6--9--10------x-10--8/-------------|
E|-3-----x-3-----------x---------------x----------8-x-8--6/-|

      Eb       Bb/D     Cm
Teus dentes têm que crescer
      Gm     Bb  F
Teus nervos acalma
   Eb            Bb/D  Cm
O mundo inteiro caça você
 Gm            Bb   F
Como tu vai contra-atacar

      Eb       Bb/D     Cm
Teus dentes têm que crescer
       Gm     Bb  F
Teu espírito acalma
   Eb            Bb/D  Cm
O mundo inteiro caça você
 Gm            Bb   F
Como tu vai contra-atacar

             Eb       Bb/D    Cm
Guerreiro, aqui é matar ou morrer
              Gm         Bb   F
Dormir com os dois olho aberto
  Gm  [Riff 4]
Selva

[Riff 4]

E|-------------------------(4x)-6-5-3-|
B|-------------------------(4x)-------|
G|-------------------------(4x)-------|
D|-3h5-5-5-x-5-x-5-3h5-5-5-(4x)-------|
A|-------------------------(4x)-------|
E|-------------------------(4x)-------|

Eb                Bb/D
Ovelha começa a caçar
Cm
A necessidade faz tu improvisar
                Dm
Os tempos são sombrios
Peleja no frio, levanta

Eb
Tentativa e erro tudo tem um jeito
Dm
O caminho a jornada
                       Bb   Cm
Vão fazer você entrar no eixo
             Gm Bb/D Eb F#° Gm7 F Cm Bb [Solo]
Deixa o horizonte iluminar

      Eb       Bb/D     Cm
Teus dentes têm que crescer
       Gm     Bb  F
Teu espírito acalma
   Eb            Bb/D  Cm
O mundo inteiro caça você
 Gm            Bb   F
Como tu vai contra-atacar

             Eb       Bb/D    Cm  Gm  Bb F
Guerreiro, aqui é matar ou morrer
             Eb       Bb/D    Cm
Guerreiro, aqui é matar ou morrer
              Gm         Bb   F
Dormir com os dois olho aberto
    Gm
Selva
Outros vídeos desta música
6.901 exibições
  • Simplificar cifra
    • ½ Tom
    • A
    • Bb
    • B
    • C
    • Db
    • D
    • Eb
    • E
    • F
    • F#
    • G
    • Ab
  • Adicionar à lista

Afinação da cifra

Afinador online

    0 comentários

    Ver todos os comentários

    Entre para o Cifra Club PRO

    Tenha acesso a benefícios exclusivos no App e no Site

    • Chega de anúncios

    • Mais recursos no app do Afinador

    • Atendimento Prioritário

    • Aumente seu limite de lista

    • Ajude a produzir mais conteúdo

    Cifra Club Pro

    Aproveite o Cifra Club com benefícios exclusivos e sem anúncios
    Cifra Club Pro
    Aproveite o Cifra Club com benefícios exclusivos e sem anúncios
    OK