Cifra Club

Killing Position

Symposium

Cifra: Principal (violão e guitarra)
Selo Cifra Club: esta cifra foi revisada para atender aos critérios oficiais da nossa Equipe de Qualidade.
tom: Dm
E|-----------------------------------------------------------------------------------|
Intro Play x2
Clean (let ring)
E|-------------------------|--------------------------|--------------------------|
B|-6--6-----6-----6-----6--|--8--8-----8-----8-----8--|--10-10----10----10----10-|
G|-5-----------------------|--7-----------------------|--9-----------------------|
D|-3-----3-----3-----3-----|--5-----5-----5-----5-----|--7-----7-----7-----7-----|
A|-------------------------|--------------------------|--------------------------|
E|-------------------------|--------------------------|--------------------------|

                                                     |    x3                    |
E|-------------------------|--------------------------|--------------------------|
B|-11-11----11----11----11-|-----------7--------------|-----------7--------------|
G|-10----------------------|-----6-----------6--------|-----6-----------6--------|
D|-8-----8-----8-----8-----|--4-----------------------|--4-----4-----------------|
A|-------------------------|--------------------------|--------------------------|
E|-------------------------|--------------------------|--------------------------|


E|---------------------------|--------------------------|--------------------------|
B|-5--5-----5-----5-----5----|--7--7-----7-----7-----7--|--5--5-----5-----5-----5--|
G|-4--4-----4-----4-----4----|--6--6-----6-----6-----6--|--4--4-----4-----4-----4--|
D|-2-------------------------|--4-----------------------|--2-----------------------|
A|---------------------------|--------------------------|--------------------------|
E|---------------------------|--------------------------|--------------------------|

                                                       |    x3                    |
E|---------------------------|--------------------------|--------------------------|
B|-7--7-----7-----7-----7----|-----------7--------------|-----------7--------------|
G|-6--6-----6-----6-----6----|-----6-----------6--------|-----6-----------6--------|
D|-4-------------------------|--4-----------------------|--4-----4-----------------|
A|---------------------------|--------------------------|--------------------------|
E|---------------------------|--------------------------|--------------------------|

On repeat replace last bar with
E|-------|
B|-------|
G|-------|
D|--4----|
A|-------|
E|-------|
E|----------------------------------------------------------------------------------|

Main Riff-Guitar 1 
Dist
||----------------------------|----------------------------|----------------------------|
||----------------------------|----------------------------|----------------------------|
||----------------------------|----------------------------|--5--5--5--5--3--3--3--3----|
||----------------------------|----------------------------|----------------------------|
||--0-----0--0--3--0-----3----|--0--0--0--0--3--0-----0----|--3--3--3--3--1--1--1--1----|
||--0-----0--0--3--0-----3----|--0--0--0--0--3--0-----0----|----------------------------|

E|----------------------------|----------------------------|----------------------------|
B|----------------------------|----------------------------|----------------------------|
G|----------------------------|----------------------------|----------------------------|
D|----------------------------|----------------------------|----------------------------|
A|--3--3--3--3--5--5--5--5----|--0-----0--0--3--0-----3----|--0--0--0--0--3--0-----0----|
E|--3--3--3--3--5--5--5--5----|--0-----0--0--3--0-----3----|--0--0--0--0--3--0-----0----|


E|----------------------------|----------------------------|----------------------------|
B|----------------------------|----------------------------|----------------------------|
G|--5--5--5--5--3--3--3--3----|----------------------------|----------------------------|
D|----------------------------|----------------------------|----------------------------|
A|--3--3--3--3--1--1--1--1----|--3--3--3--3--5--5--5--5----|--0-----0--0--3--0-----3----|
E|----------------------------|--3--3--3--3--5--5--5--5----|--0-----0--0--3--0-----3----|

                                                           PM""""""""""""""""""""""""""|
E|----------------------------|----------------------------|----------------------------|
B|----------------------------|----------------------------|----------------------------|
G|----------------------------|--5--5--5--5--3--3--3--3----|----------------------------|
D|----------------------------|----------------------------|----------------------------|
A|--0--0--0--0--3--0-----0----|--3--3--3--3--1--1--1--1----|--3--5--5--3--5--5--3--5----|
E|--0--0--0--0--3--0-----0----|----------------------------|--3--5--5--3--5--5--3--5----|

E|----------------------------|----------------------------|----------------------------|
B|----------------------------|----------------------------|----------------------------|
G|----------------------------|----------------------------|--5--5--5--5--3--3--3--3----|
D|----------------------------|----------------------------|----------------------------|
A|--0-----0--0--3--0-----3----|--0--0--0--0--3--0-----0----|--3--3--3--3--1--1--1--1----|
E|--0-----0--0--3--0-----3----|--0--0--0--0--3--0-----0----|----------------------------|

E|----------------------------|---------------| |
B|----------------------------|---------------| |
G|----------------------------|---------------| |
D|----------------------------|---------------| |
A|--3--3--3--3--5-----5-------|--0---| Let Ring-||
E|--3--3--3--3--5-----5-------|--0------------| |

Main Riff-Guitar 2 
Dist
||----------------------------|----------------------------|----------------------------|
||----------------------------|----------------------------|----------------------------|
||----------------------------|----------------------------|----------------------------|
||----------------------------|----------------------------|----------------------------|
||--0-----0--0--15-0-----15---|--0--0--0--0--15-0-----0----|--10-10-10-10-8--8--8--8----|
||--0-----0--0--15-0-----15---|--0--0--0--0--15-0-----0----|--10-10-10-10-8--8--8--8----|

E|----------------------------|----------------------------|----------------------------|
B|----------------------------|----------------------------|----------------------------|
G|----------------------------|----------------------------|----------------------------|
D|----------------------------|----------------------------|----------------------------|
A|--3--3--3--3--5--5--5--5----|--0-----0--0--15-0-----15---|--0--0--0--0--15-0-----0----|
E|--3--3--3--3--5--5--5--5----|--0-----0--0--15-0-----15---|--0--0--0--0--15-0-----0----|

E|----------------------------|----------------------------|----------------------------|
B|----------------------------|----------------------------|----------------------------|
G|----------------------------|----------------------------|----------------------------|
D|----------------------------|----------------------------|----------------------------|
A|--10-10-10-10-8--8--8--8----|--3--3--3--3--5--5--5--5----|--0-----0--0--15-0-----15---|
E|--10-10-10-10-8--8--8--8----|--3--3--3--3--5--5--5--5----|--0-----0--0--15-0-----15---|

                                                           PM""""""""""""""""""""""""""|
E|----------------------------|----------------------------|----------------------------|
B|----------------------------|----------------------------|----------------------------|
G|----------------------------|----------------------------|----------------------------|
D|----------------------------|----------------------------|----------------------------|
A|--0--0--0--0--15-0-----0----|--10-10-10-10-8--8--8--8----|--3--5--5--3--5--5--3--5----|
E|--0--0--0--0--15-0-----0----|--10-10-10-10-8--8--8--8----|--3--5--5--3--5--5--3--5----|

E|----------------------------|----------------------------|----------------------------|
B|----------------------------|----------------------------|----------------------------|
G|----------------------------|----------------------------|----------------------------|
D|----------------------------|----------------------------|----------------------------|
A|--0-----0--0--15-0-----15---|--0--0--0--0--15-0-----0----|--10-10-10-10-8--8--8--8----|
E|--0-----0--0--15-0-----15---|--0--0--0--0--15-0-----0----|--10-10-10-10-8--8--8--8----|

|----------------------------|---------------||
|----------------------------|---------------||
|----------------------------|---------------||
|----------------------------|---------------||
|--3--3--3--3--5------5------|--0---Let Ring-||
|--3--3--3--3--5------5------|--0------------||
E|-----------------------------------------------------------------------------------|____

Verse 1
Clean play x4                                                              
||----------------------------|----------------------------|----------------------------|
||----------------------------|----------------------------|----------------------------|
||-----------------2-----2----|-----------------2-----2----|----------------------------|
||-----3-----3----------------|-----3-----3----------------|-----2-----2-----3-----3----|
||--0-----0-----0-----0-------|--0-----0-----0-----0-------|--0-----0-----0-----0-------|
||----------------------------|----------------------------|----------------------------|
                                    end verse on                       
E|----------------------------| | |----------------------------||
B|----------------------------| | |----------------------------||
G|----------------------------| | |----------------------------||
D|-----5-----5-----3-----3----| | |--/5------------------------||
A|--0-----0-----0-----0-------| | |----------------------------||
E|----------------------------| | |----------------------------||

Dreaming quietly on my pillow, how my apathy leaves me hollow.
Sentimental thoughts won't get you anywhere, silent, searching, looking for what isn't there
E|-----------------------------------------------------------------------------------|____

Main Riff pre-chorus -Guitar 1 Ends differently
Dist
||----------------------------|----------------------------|----------------------------|
||----------------------------|----------------------------|----------------------------|
||----------------------------|----------------------------|--5--5--5--5--3--3--3--3----|
||----------------------------|----------------------------|----------------------------|
||--0-----0--0--3--0-----3----|--0--0--0--0--3--0-----0----|--3--3--3--3--1--1--1--1----|
||--0-----0--0--3--0-----3----|--0--0--0--0--3--0-----0----|----------------------------|

E|----------------------------|----------------------------|----------------------------|
B|----------------------------|----------------------------|----------------------------|
G|----------------------------|----------------------------|----------------------------|
D|----------------------------|----------------------------|----------------------------|
A|--3--3--3--3--5--5--5--5----|--0-----0--0--3--0-----3----|--0--0--0--0--3--0-----0----|
E|--3--3--3--3--5--5--5--5----|--0-----0--0--3--0-----3----|--0--0--0--0--3--0-----0----|


E|----------------------------|----------------------------|----------------------------|
B|----------------------------|----------------------------|----------------------------|
G|--5--5--5--5--3--3--3--3----|----------------------------|----------------------------|
D|----------------------------|----------------------------|----------------------------|
A|--3--3--3--3--1--1--1--1----|--3--3--3--3--5--5--5--5----|--0-----0--0--3--0-----3----|
E|----------------------------|--3--3--3--3--5--5--5--5----|--0-----0--0--3--0-----3----|

                                                           PM""""""""""""""""""""""""""|
E|----------------------------|----------------------------|----------------------------|
B|----------------------------|----------------------------|----------------------------|
G|----------------------------|--5--5--5--5--3--3--3--3----|----------------------------|
D|----------------------------|----------------------------|----------------------------|
A|--0--0--0--0--3--0-----0----|--3--3--3--3--1--1--1--1----|--3--5--5--3--5--5--3--5----|
E|--0--0--0--0--3--0-----0----|----------------------------|--3--5--5--3--5--5--3--5----|

E|----------------------------|----------------------------|----------------------------|
B|----------------------------|----------------------------|----------------------------|
G|----------------------------|----------------------------|--5--5--5--5--5--5--5--5----|
D|----------------------------|----------------------------|----------------------------|
A|--0-----0--0--3--0-----3----|--0--0--0--0--3--0-----0----|--3--3--3--3--3--3--3--3----|
E|--0-----0--0--3--0-----3----|--0--0--0--0--3--0-----0----|----------------------------|

E|----------------------------| |
B|----------------------------| |
G|--5--5--5--5--5--5--5--5----| |
D|--5--5--5--5--5--5--5--5----| |
A|--3--3--3--3--3--3--3--3----| |
E|----------------------------| |

Main Riff pre-chorus-Guitar 2 Ends differently
Dist
||----------------------------|----------------------------|----------------------------|
||----------------------------|----------------------------|----------------------------|
||----------------------------|----------------------------|----------------------------|
||----------------------------|----------------------------|----------------------------|
||--0-----0--0--15-0-----15---|--0--0--0--0--15-0-----0----|--10-10-10-10-8--8--8--8----|
||--0-----0--0--15-0-----15---|--0--0--0--0--15-0-----0----|--10-10-10-10-8--8--8--8----|

E|----------------------------|----------------------------|----------------------------|
B|----------------------------|----------------------------|----------------------------|
G|----------------------------|----------------------------|----------------------------|
D|----------------------------|----------------------------|----------------------------|
A|--3--3--3--3--5--5--5--5----|--0-----0--0--15-0-----15---|--0--0--0--0--15-0-----0----|
E|--3--3--3--3--5--5--5--5----|--0-----0--0--15-0-----15---|--0--0--0--0--15-0-----0----|

E|----------------------------|----------------------------|----------------------------|
B|----------------------------|----------------------------|----------------------------|
G|----------------------------|----------------------------|----------------------------|
D|----------------------------|----------------------------|----------------------------|
A|--10-10-10-10-8--8--8--8----|--3--3--3--3--5--5--5--5----|--0-----0--0--15-0-----15---|
E|--10-10-10-10-8--8--8--8----|--3--3--3--3--5--5--5--5----|--0-----0--0--15-0-----15---|

                                                           PM""""""""""""""""""""""""""|
E|----------------------------|----------------------------|----------------------------|
B|----------------------------|----------------------------|----------------------------|
G|----------------------------|----------------------------|----------------------------|
D|----------------------------|----------------------------|----------------------------|
A|--0--0--0--0--15-0-----0----|--10-10-10-10-8--8--8--8----|--3--5--5--3--5--5--3--5----|
E|--0--0--0--0--15-0-----0----|--10-10-10-10-8--8--8--8----|--3--5--5--3--5--5--3--5----|

E|----------------------------|----------------------------|----------------------------|
B|----------------------------|----------------------------|----------------------------|
G|----------------------------|----------------------------|----------------------------|
D|----------------------------|----------------------------|----------------------------|
A|--0-----0--0--15-0-----15---|--0--0--0--0--15-0-----0----|--10-10-10-10-10-10-10-10---|
E|--0-----0--0--15-0-----15---|--0--0--0--0--15-0-----0----|--10-10-10-10-10-10-10-10---|

|----------------------------||
|----------------------------||
|--12-12-12-12-12-12-12-12---||
|--10-10-10-10-10-10-10-10---||
|--10-10-10-10-10-10-10-10---||
|--10-10-10-10-10-10-10-10---||
E|-----------------------------------------------------------------------------------|____

Chorus 1 -Guitar 1
||----------------|----------------|----------------|----------------|----------------|
||----------------|----------------|----------------|----------------|----------------|
||--12-12-12-12---|--14-14-14-15---|--(15)-15-15-15-|--17-17-17-17---|--12-12-12-12---|
||----------------|----------------|----------------|----------------|----------------|
||--10-10-10-10---|--12-12-12-13---|--(13)-13-13-13-|--15-15-15-15---|--10-10-10-10---|
||----------------|----------------|----------------|----------------|----------------|

E|----------------|----------------|----------------|----------------|----------------|
B|----------------|----------------|----------------|----------------|----------------|
G|--14-14-14-15---|--(15)-15-15-15-|--17-17-17-17---|--12-12-12-12---|--14-14-14-15---|
D|----------------|----------------|----------------|----------------|----------------|
A|--12-12-12-13---|--(13)-13-13-13-|--15-15-15-15---|--10-10-10-10---|--12-12-12-13---|
E|----------------|----------------|----------------|----------------|----------------|

E|----------------|----------------|----------------|----------------|----------------|
B|----------------|----------------|----------------|----------------|----------------|
G|--(15)-15-15-15-|--17-17-17-17---|--12-12-12-12---|--14-14-14-15---|--(15)-15-15-15-|
D|----------------|----------------|----------------|----------------|----------------|
A|--(13)-13-13-13-|--15-15-15-15---|--10-10-10-10---|--12-12-12-13---|--(13)-13-13-13-|
E|----------------|----------------|----------------|----------------|----------------|

E|---------------| |
B|---------------| |
G|--17-| let ring--||
D|---------------| |
A|--15-| let ring--||
E|---------------| |

Chorus 1 -Guitar 2
||----------------|----------------|----------------|----------------|----------------|
||----------------|----------------|----------------|----------------|----------------|
||----------------|-----------3----|--(3)--3--3--3--|--5--5--5--5----|----------------|
||--5--5--5--5----|--0--0--0--3----|--(3)--3--3--3--|--5--5--5--5----|--5--5--5--5----|
||--5--5--5--5----|--0--0--0--1----|--(1)--1--1--1--|--3--3--3--3----|--5--5--5--5----|
||--5--5--5--5----|--0--0--0-------|----------------|----------------|--5--5--5--5----|

E|----------------|----------------|----------------|----------------|----------------|
B|----------------|----------------|----------------|----------------|----------------|
G|-----------3----|--(3)--3--3--3--|--5--5--5--5----|----------------|-----------3----|
D|--0--0--0--3----|--(3)--3--3--3--|--5--5--5--5----|--5--5--5--5----|--0--0--0--3----|
A|--0--0--0--1----|--(1)--1--1--1--|--3--3--3--3----|--5--5--5--5----|--0--0--0--1----|
E|--0--0--0-------|----------------|----------------|--5--5--5--5----|--0--0--0-------|


E|----------------|----------------|----------------|----------------|----------------|
B|----------------|----------------|----------------|----------------|----------------|
G|--(3)--3--3--3--|--5--5--5--5----|----------------|-----------3----|--(3)--3--3--3--|
D|--(3)--3--3--3--|--5--5--5--5----|--5--5--5--5----|--0--0--0--3----|--(3)--3--3--3--|
A|--(1)--1--1--1--|--3--3--3--3----|--5--5--5--5----|--0--0--0--1----|--(1)--1--1--1--|
E|----------------|----------------|--5--5--5--5----|--0--0--0-------|----------------|

E|---------------| |
B|---------------| |
G|--5-| let ring---||
D|--5-| let ring---||
A|--3-| let ring---||
E|---------------| |


I will set my heart to the Killing Position, I will show you pain how I remember it
I will set my heart to the Killing Position, I will tell you that I don't need you
E|-----------------------------------------------------------------------------------|____

Verse 2 
Clean play x4                                                              
||----------------------------|----------------------------|----------------------------|
||----------------------------|----------------------------|----------------------------|
||-----------------2-----2----|-----------------2-----2----|----------------------------|
||-----3-----3----------------|-----3-----3----------------|-----2-----2-----3-----3----|
||--0-----0-----0-----0-------|--0-----0-----0-----0-------|--0-----0-----0-----0-------|
||----------------------------|----------------------------|----------------------------|
                                    end verse on                       
E|----------------------------| | |----------------------------||
B|----------------------------| | |----------------------------||
G|----------------------------| | |----------------------------||
D|-----5-----5-----3-----3----| | |--/5------------------------||
A|--0-----0-----0-----0-------| | |----------------------------||
E|----------------------------| | |----------------------------||

Never visiting me, one day, someday, Who do you think you are, Look at himself,
Climbing deep in side the hollows of my mind, Whispering that all my friends are enemies 
E|-----------------------------------------------------------------------------------|_______

Main Riff pre-chorus-Guitar 1 
Dist
||----------------------------|----------------------------|----------------------------|
||----------------------------|----------------------------|----------------------------|
||----------------------------|----------------------------|--5--5--5--5--3--3--3--3----|
||----------------------------|----------------------------|----------------------------|
||--0-----0--0--3--0-----3----|--0--0--0--0--3--0-----0----|--3--3--3--3--1--1--1--1----|
||--0-----0--0--3--0-----3----|--0--0--0--0--3--0-----0----|----------------------------|

E|----------------------------|----------------------------|----------------------------|
B|----------------------------|----------------------------|----------------------------|
G|----------------------------|----------------------------|----------------------------|
D|----------------------------|----------------------------|----------------------------|
A|--3--3--3--3--5--5--5--5----|--0-----0--0--3--0-----3----|--0--0--0--0--3--0-----0----|
E|--3--3--3--3--5--5--5--5----|--0-----0--0--3--0-----3----|--0--0--0--0--3--0-----0----|


E|----------------------------|----------------------------|----------------------------|
B|----------------------------|----------------------------|----------------------------|
G|--5--5--5--5--3--3--3--3----|----------------------------|----------------------------|
D|----------------------------|----------------------------|----------------------------|
A|--3--3--3--3--1--1--1--1----|--3--3--3--3--5--5--5--5----|--0-----0--0--3--0-----3----|
E|----------------------------|--3--3--3--3--5--5--5--5----|--0-----0--0--3--0-----3----|

                                                           PM""""""""""""""""""""""""""|
E|----------------------------|----------------------------|----------------------------|
B|----------------------------|----------------------------|----------------------------|
G|----------------------------|--5--5--5--5--3--3--3--3----|----------------------------|
D|----------------------------|----------------------------|----------------------------|
A|--0--0--0--0--3--0-----0----|--3--3--3--3--1--1--1--1----|--3--5--5--3--5--5--3--5----|
E|--0--0--0--0--3--0-----0----|----------------------------|--3--5--5--3--5--5--3--5----|

E|----------------------------|----------------------------|----------------------------|
B|----------------------------|----------------------------|----------------------------|
G|----------------------------|----------------------------|--5--5--5--5--5--5--5--5----|
D|----------------------------|----------------------------|----------------------------|
A|--0-----0--0--3--0-----3----|--0--0--0--0--3--0-----0----|--3--3--3--3--3--3--3--3----|
E|--0-----0--0--3--0-----3----|--0--0--0--0--3--0-----0----|----------------------------|

E|----------------------------| |
B|----------------------------| |
G|--5--5--5--5--5--5--5--5----| |
D|--5--5--5--5--5--5--5--5----| |
A|--3--3--3--3--3--3--3--3----| |
E|----------------------------| |

Main Riff pre-chorus-Guitar 2 
Dist
||----------------------------|----------------------------|----------------------------|
||----------------------------|----------------------------|----------------------------|
||----------------------------|----------------------------|----------------------------|
||----------------------------|----------------------------|----------------------------|
||--0-----0--0--15-0-----15---|--0--0--0--0--15-0-----0----|--10-10-10-10-8--8--8--8----|
||--0-----0--0--15-0-----15---|--0--0--0--0--15-0-----0----|--10-10-10-10-8--8--8--8----|

E|----------------------------|----------------------------|----------------------------|
B|----------------------------|----------------------------|----------------------------|
G|----------------------------|----------------------------|----------------------------|
D|----------------------------|----------------------------|----------------------------|
A|--3--3--3--3--5--5--5--5----|--0-----0--0--15-0-----15---|--0--0--0--0--15-0-----0----|
E|--3--3--3--3--5--5--5--5----|--0-----0--0--15-0-----15---|--0--0--0--0--15-0-----0----|

E|----------------------------|----------------------------|----------------------------|
B|----------------------------|----------------------------|----------------------------|
G|----------------------------|----------------------------|----------------------------|
D|----------------------------|----------------------------|----------------------------|
A|--10-10-10-10-8--8--8--8----|--3--3--3--3--5--5--5--5----|--0-----0--0--15-0-----15---|
E|--10-10-10-10-8--8--8--8----|--3--3--3--3--5--5--5--5----|--0-----0--0--15-0-----15---|

                                                           PM""""""""""""""""""""""""""|
E|----------------------------|----------------------------|----------------------------|
B|----------------------------|----------------------------|----------------------------|
G|----------------------------|----------------------------|----------------------------|
D|----------------------------|----------------------------|----------------------------|
A|--0--0--0--0--15-0-----0----|--10-10-10-10-8--8--8--8----|--3--5--5--3--5--5--3--5----|
E|--0--0--0--0--15-0-----0----|--10-10-10-10-8--8--8--8----|--3--5--5--3--5--5--3--5----|

E|----------------------------|----------------------------|----------------------------|
B|----------------------------|----------------------------|----------------------------|
G|----------------------------|----------------------------|----------------------------|
D|----------------------------|----------------------------|----------------------------|
A|--0-----0--0--15-0-----15---|--0--0--0--0--15-0-----0----|--10-10-10-10-10-10-10-10---|
E|--0-----0--0--15-0-----15---|--0--0--0--0--15-0-----0----|--10-10-10-10-10-10-10-10---|

|----------------------------||
|----------------------------||
|--12-12-12-12-12-12-12-12---||
|--10-10-10-10-10-10-10-10---||
|--10-10-10-10-10-10-10-10---||
|--10-10-10-10-10-10-10-10---||
E|-----------------------------------------------------------------------------------|____

Chorus 2 -Guitar 1 
||----------------|----------------|----------------|----------------|----------------|
||----------------|----------------|----------------|----------------|----------------|
||--12-12-12-12---|--14-14-14-15---|--(15)-15-15-15-|--17-17-17-17---|--12-12-12-12---|
||----------------|----------------|----------------|----------------|----------------|
||--10-10-10-10---|--12-12-12-13---|--(13)-13-13-13-|--15-15-15-15---|--10-10-10-10---|
||----------------|----------------|----------------|----------------|----------------|

E|----------------|----------------|----------------|----------------|----------------|
B|----------------|----------------|----------------|----------------|----------------|
G|--14-14-14-15---|--(15)-15-15-15-|--17-17-17-17---|--12-12-12-12---|--14-14-14-15---|
D|----------------|----------------|----------------|----------------|----------------|
A|--12-12-12-13---|--(13)-13-13-13-|--15-15-15-15---|--10-10-10-10---|--12-12-12-13---|
E|----------------|----------------|----------------|----------------|----------------|

E|----------------|----------------|----------------|----------------|----------------|
B|----------------|----------------|----------------|----------------|----------------|
G|--(15)-15-15-15-|--17-17-17-17---|--12-12-12-12---|--14-14-14-15---|--(15)-15-15-15-|
D|----------------|----------------|----------------|----------------|----------------|
A|--(13)-13-13-13-|--15-15-15-15---|--10-10-10-10---|--12-12-12-13---|--(13)-13-13-13-|
E|----------------|----------------|----------------|----------------|----------------|

E|---------------| |
B|---------------| |
G|--17-| let ring--||
D|---------------| |
A|--15-| let ring--||
E|---------------| |

Chorus 2 -Guitar 2 
||----------------|----------------|----------------|----------------|----------------|
||----------------|----------------|----------------|----------------|----------------|
||----------------|-----------3----|--(3)--3--3--3--|--5--5--5--5----|----------------|
||--5--5--5--5----|--0--0--0--3----|--(3)--3--3--3--|--5--5--5--5----|--5--5--5--5----|
||--5--5--5--5----|--0--0--0--1----|--(1)--1--1--1--|--3--3--3--3----|--5--5--5--5----|
||--5--5--5--5----|--0--0--0-------|----------------|----------------|--5--5--5--5----|

E|----------------|----------------|----------------|----------------|----------------|
B|----------------|----------------|----------------|----------------|----------------|
G|-----------3----|--(3)--3--3--3--|--5--5--5--5----|----------------|-----------3----|
D|--0--0--0--3----|--(3)--3--3--3--|--5--5--5--5----|--5--5--5--5----|--0--0--0--3----|
A|--0--0--0--1----|--(1)--1--1--1--|--3--3--3--3----|--5--5--5--5----|--0--0--0--1----|
E|--0--0--0-------|----------------|----------------|--5--5--5--5----|--0--0--0-------|


E|----------------|----------------|----------------|----------------|----------------|
B|----------------|----------------|----------------|----------------|----------------|
G|--(3)--3--3--3--|--5--5--5--5----|----------------|-----------3----|--(3)--3--3--3--|
D|--(3)--3--3--3--|--5--5--5--5----|--5--5--5--5----|--0--0--0--3----|--(3)--3--3--3--|
A|--(1)--1--1--1--|--3--3--3--3----|--5--5--5--5----|--0--0--0--1----|--(1)--1--1--1--|
E|----------------|----------------|--5--5--5--5----|--0--0--0-------|----------------|

E|---------------| |
B|---------------| |
G|--5-| let ring---||
D|--5-| let ring---||
A|--3-| let ring---||
E|---------------| |

I will set my heart to the Killing Position, I will show you pain how I remember it
I will set my heart to the Killing Position, I will tell you that I don't need you
E|-----------------------------------------------------------------------------------|______

Bridge Part 1 (On the track this part comes in under the ringing of the 2nd chorus)
Clean (let ring)
||----------------------------|----------------------------|----------------------------|
||--6--6-----6-----6-----6----|--8--8-----8-----8-----8----|--10-10----10----10----10---|
||--5-------------------------|--7-------------------------|--9-------------------------|
||--3-----3-----3-----3-------|--5-----5-----5-----5-------|--7-----7-----7-----7-------|
||----------------------------|----------------------------|----------------------------|
||----------------------------|----------------------------|----------------------------|

                                                          ||    x3                    ||
E|----------------------------|----------------------------|----------------------------|
B|--11-11----11----11----11---|-----------7----------------|-----------7----------------|
G|--10------------------------|-----6-----------6----------|-----6-----------6----------|
D|--8-----8-----8-----8-------|--4-------------------------|--4-----4-------------------|
A|----------------------------|----------------------------|----------------------------|
E|----------------------------|----------------------------|----------------------------|


E|----------------------------|----------------------------|----------------------------|
B|--5--5-----5-----5-----5----|--7--7-----7-----7-----7----|--5--5-----5-----5-----5----|
G|--4--4-----4-----4-----4----|--6--6-----6-----6-----6----|--4--4-----4-----4-----4----|
D|--2-------------------------|--4-------------------------|--2-------------------------|
A|----------------------------|----------------------------|----------------------------|
E|----------------------------|----------------------------|----------------------------|

                                                          ||    x3                    ||
E|----------------------------|----------------------------|----------------------------|
B|--7--7-----7-----7-----7----|-----------7----------------|-----------7----------------|
G|--6--6-----6-----6-----6----|-----6-----------6----------|-----6-----------6----------|
D|--4-------------------------|--4-------------------------|--4-----4-------------------|
A|----------------------------|----------------------------|----------------------------|
E|----------------------------|----------------------------|----------------------------|

On repeat replace last bar with
|-------||
|-------||
|-------||
|--4----||
|-------||
|-------||
E|-----------------------------------------------------------------------------------|______

Bridge part 2
Guitar 1 x4
Dist
 PM"""""""""""""""""""""""""""""""""""""""""""""""""""""""""""""""""""""""""""""""""""""|
||----------------------------|----------------------------|----------------------------|
||----------------------------|----------------------------|----------------------------|
||----------------------------|----------------------------|----------------------------|
||----------------------------|----------------------------|----------------------------|
||--0--0--0--0--0--0--0--0----|--0--0--0--0--0--0--0--0----|--0--0--0--0--0--0--0--0----|
||--0--0--0--0--0--0--0--0----|--0--0--0--0--0--0--0--0----|--0--0--0--0--0--0--0--0----|

PM"""""""""""""""""""""""""""|
E|----------------------------|----------------------------|----------------------------|
B|----------------------------|----------------------------|----------------------------|
G|----------------------------|----------------------------|----------------------------|
D|----------------------------|--3-----------(3)-3-(3)--3--|--3----------(3)--3--3------|
A|--0--0--0--0--0--0--0--0----|--3-----------(3)-3-(3)--3--|--3----------(3)--3--3------|
E|--0--0--0--0--0--0--0--0----|--3-----------(3)-3-(3)--3--|--3----------(3)--3--3------|

E|----------------------------|----------------------------| |
B|----------------------------|----------------------------| |
G|----------------------------|----------------------------| |
D|--3-----------(3)-3-(3)--3--|--3----------(3)--3--3------| |
A|--3-----------(3)-3-(3)--3--|--3----------(3)--3--3------| |
E|--3-----------(3)-3-(3)--3--|--3----------(3)--3--3------| |

Guitar 2 x2
Dist
||----------------------------|----------------------------|----------------------------|
||----------------------------|----------------------------|----------------------------|
||--10-10-10-10-10-10-10-10---|--12-12-12-12-12-12-12-12---|--15-15-15-15-15-15-15-15---|
||----------------------------|----------------------------|----------------------------|
||--8--8--8--8--8--8--8--8----|--10-10-10-10-10-10-10-10---|--12-12-12-12-12-12-12-12---|
||----------------------------|----------------------------|----------------------------|

E|----------------------------|-----------------|-----------------|
B|----------------------------|-----------------|-----------------|
G|--14-14-14-14-14-14-14-14---|--17-17-| let ring-|--18-18-let ring-|
D|----------------------------|-----------------|-----------------|
A|--13-13-13-13-13-13-13-13---|--15-15-| let ring-|--16-16-let ring-|
E|----------------------------|-----------------|-----------------|

E|-----------------|-----------------|----------------------------|
B|-----------------|-----------------|----------------------------|
G|--17-17-| let ring-|--18-18-let ring-|--9--9--9--9--9--9--9--9----|
D|-----------------|-----------------|----------------------------|
A|--15-15-| let ring-|--18-18-let ring-|--7--7--7--7--7--7--7--7----|
E|-----------------|-----------------|----------------------------|

E|----------------------------|----------------------------|----------------------------|
B|----------------------------|----------------------------|----------------------------|
G|--11-11-11-11-11-11-11-11---|--9--9--9--9--9--9--9--9----|--11-11-11-11-11-11-11-11---|
D|----------------------------|----------------------------|----------------------------|
A|--9--9--9--9--9--9--9--9----|--7--7--7--7--7--7--7--7----|--9--9--9--9--9--9--9--9----|
E|----------------------------|----------------------------|----------------------------|

                                                    On repeat replace last bar with
                                                   Harm ************************||
|---------------|-------|---------------|-------|| |----------------------------||
|---------------|-------|---------------|-------|| |----------------------------||
|--11--let ring-|--(11)-|--11--let ring-|--(11)-|| |----------------------------||
|---------------|-------|---------------|-------|| |----------------------------||
|--9---let ring-|--(9)--|--9---let ring-|--(9)--|| |----------------------------||
|---------------|-------|---------------|-------|| |--5--5--4--4--3--3--4--4----||
E|-----------------------------------------------------------------------------------|______

Chorus 3 -Guitar 1 Ends differently
||----------------|----------------|----------------|----------------|----------------|
||----------------|----------------|----------------|----------------|----------------|
||--12-12-12-12---|--14-14-14-15---|--(15)-15-15-15-|--17-17-17-17---|--12-12-12-12---|
||----------------|----------------|----------------|----------------|----------------|
||--10-10-10-10---|--12-12-12-13---|--(13)-13-13-13-|--15-15-15-15---|--10-10-10-10---|
||----------------|----------------|----------------|----------------|----------------|

E|----------------|----------------|----------------|----------------|----------------|
B|----------------|----------------|----------------|----------------|----------------|
G|--14-14-14-15---|--(15)-15-15-15-|--17-17-17-17---|--12-12-12-12---|--14-14-14-15---|
D|----------------|----------------|----------------|----------------|----------------|
A|--12-12-12-13---|--(13)-13-13-13-|--15-15-15-15---|--10-10-10-10---|--12-12-12-13---|
E|----------------|----------------|----------------|----------------|----------------|

E|----------------|----------------|----------------|----------------|----------------|
B|----------------|----------------|----------------|----------------|----------------|
G|--(15)-15-15-15-|--17-17-17-17---|--12-12-12-12---|--14-14-14-15---|--(15)-15-15-15-|
D|----------------|----------------|----------------|----------------|----------------|
A|--(13)-13-13-13-|--15-15-15-15---|--10-10-10-10---|--12-12-12-13---|--(13)-13-13-13-|
E|----------------|----------------|----------------|----------------|----------------|

E|---------------| |
B|---------------| |
G|--17-17-17-17--| |
D|---------------| |
A|--15-15-15-15--| |
E|---------------| |

Chorus 3 -Guitar 2 Ends differently
||----------------|----------------|----------------|----------------|----------------|
||----------------|----------------|----------------|----------------|----------------|
||----------------|-----------3----|--(3)--3--3--3--|--5--5--5--5----|----------------|
||--5--5--5--5----|--0--0--0--3----|--(3)--3--3--3--|--5--5--5--5----|--5--5--5--5----|
||--5--5--5--5----|--0--0--0--1----|--(1)--1--1--1--|--3--3--3--3----|--5--5--5--5----|
||--5--5--5--5----|--0--0--0-------|----------------|----------------|--5--5--5--5----|

E|----------------|----------------|----------------|----------------|----------------|
B|----------------|----------------|----------------|----------------|----------------|
G|-----------3----|--(3)--3--3--3--|--5--5--5--5----|----------------|-----------3----|
D|--0--0--0--3----|--(3)--3--3--3--|--5--5--5--5----|--5--5--5--5----|--0--0--0--3----|
A|--0--0--0--1----|--(1)--1--1--1--|--3--3--3--3----|--5--5--5--5----|--0--0--0--1----|
E|--0--0--0-------|----------------|----------------|--5--5--5--5----|--0--0--0-------|


E|----------------|----------------|----------------|----------------|----------------|
B|----------------|----------------|----------------|----------------|----------------|
G|--(3)--3--3--3--|--5--5--5--5----|----------------|-----------3----|--(3)--3--3--3--|
D|--(3)--3--3--3--|--5--5--5--5----|--5--5--5--5----|--0--0--0--3----|--(3)--3--3--3--|
A|--(1)--1--1--1--|--3--3--3--3----|--5--5--5--5----|--0--0--0--1----|--(1)--1--1--1--|
E|----------------|----------------|--5--5--5--5----|--0--0--0-------|----------------|

E|---------------| |
B|---------------| |
G|--5--5--5--5---| |
D|--5--5--5--5---| |
A|--3--3--3--3---| |
E|---------------| |

I will set my heart to the Killing Position, I will show you that I don't need you
I will set my heart to the Killing Position, I will show you pain how I remember it
E|-----------------------------------------------------------------------------------|________

Main Riff outro -Guitar 1 
||----------------------------|----------------------------|----------------------------|
||----------------------------|----------------------------|----------------------------|
||----------------------------|----------------------------|--5--5--5--5--3--3--3--3----|
||----------------------------|----------------------------|----------------------------|
||--0-----0--0--3--0-----3----|--0--0--0--0--3--0-----0----|--3--3--3--3--1--1--1--1----|
||--0-----0--0--3--0-----3----|--0--0--0--0--3--0-----0----|----------------------------|

E|----------------------------|----------------------------|----------------------------|
B|----------------------------|----------------------------|----------------------------|
G|----------------------------|----------------------------|----------------------------|
D|----------------------------|----------------------------|----------------------------|
A|--3--3--3--3--5--5--5--5----|--0-----0--0--3--0-----3----|--0--0--0--0--3--0-----0----|
E|--3--3--3--3--5--5--5--5----|--0-----0--0--3--0-----3----|--0--0--0--0--3--0-----0----|


E|----------------------------|----------------------------|----------------------------|
B|----------------------------|----------------------------|----------------------------|
G|--5--5--5--5--3--3--3--3----|----------------------------|----------------------------|
D|----------------------------|----------------------------|----------------------------|
A|--3--3--3--3--1--1--1--1----|--3--3--3--3--5--5--5--5----|--0-----0--0--3--0-----3----|
E|----------------------------|--3--3--3--3--5--5--5--5----|--0-----0--0--3--0-----3----|

                                                           PM""""""""""""""""""""""""""|
E|----------------------------|----------------------------|----------------------------|
B|----------------------------|----------------------------|----------------------------|
G|----------------------------|--5--5--5--5--3--3--3--3----|----------------------------|
D|----------------------------|----------------------------|----------------------------|
A|--0--0--0--0--3--0-----0----|--3--3--3--3--1--1--1--1----|--3--5--5--3--5--5--3--5----|
E|--0--0--0--0--3--0-----0----|----------------------------|--3--5--5--3--5--5--3--5----|

E|----------------------------|----------------------------|----------------------------|
B|----------------------------|----------------------------|----------------------------|
G|----------------------------|----------------------------|--5--5--5--5--3--3--3--3----|
D|----------------------------|----------------------------|----------------------------|
A|--0-----0--0--3--0-----3----|--0--0--0--0--3--0-----0----|--3--3--3--3--1--1--1--1----|
E|--0-----0--0--3--0-----3----|--0--0--0--0--3--0-----0----|----------------------------|

E|----------------------------|---------------| |
B|----------------------------|---------------| |
G|----------------------------|---------------| |
D|----------------------------|---------------| |
A|--3--3--3--3--5-----5-------|--0---| Let Ring-||
E|--3--3--3--3--5-----5-------|--0------------| |

Main Riff outro -Guitar 2 
||----------------------------|----------------------------|----------------------------|
||----------------------------|----------------------------|----------------------------|
||----------------------------|----------------------------|----------------------------|
||----------------------------|----------------------------|----------------------------|
||--0-----0--0--15-0-----15---|--0--0--0--0--15-0-----0----|--10-10-10-10-8--8--8--8----|
||--0-----0--0--15-0-----15---|--0--0--0--0--15-0-----0----|--10-10-10-10-8--8--8--8----|

E|----------------------------|----------------------------|----------------------------|
B|----------------------------|----------------------------|----------------------------|
G|----------------------------|----------------------------|----------------------------|
D|----------------------------|----------------------------|----------------------------|
A|--3--3--3--3--5--5--5--5----|--0-----0--0--15-0-----15---|--0--0--0--0--15-0-----0----|
E|--3--3--3--3--5--5--5--5----|--0-----0--0--15-0-----15---|--0--0--0--0--15-0-----0----|

E|----------------------------|----------------------------|----------------------------|
B|----------------------------|----------------------------|----------------------------|
G|----------------------------|----------------------------|----------------------------|
D|----------------------------|----------------------------|----------------------------|
A|--10-10-10-10-8--8--8--8----|--3--3--3--3--5--5--5--5----|--0-----0--0--15-0-----15---|
E|--10-10-10-10-8--8--8--8----|--3--3--3--3--5--5--5--5----|--0-----0--0--15-0-----15---|

                                                           PM""""""""""""""""""""""""""|
E|----------------------------|----------------------------|----------------------------|
B|----------------------------|----------------------------|----------------------------|
G|----------------------------|----------------------------|----------------------------|
D|----------------------------|----------------------------|----------------------------|
A|--0--0--0--0--15-0-----0----|--10-10-10-10-8--8--8--8----|--3--5--5--3--5--5--3--5----|
E|--0--0--0--0--15-0-----0----|--10-10-10-10-8--8--8--8----|--3--5--5--3--5--5--3--5----|

E|----------------------------|----------------------------|----------------------------|
B|----------------------------|----------------------------|----------------------------|
G|----------------------------|----------------------------|----------------------------|
D|----------------------------|----------------------------|----------------------------|
A|--0-----0--0--15-0-----15---|--0--0--0--0--15-0-----0----|--10-10-10-10-8--8--8--8----|
E|--0-----0--0--15-0-----15---|--0--0--0--0--15-0-----0----|--10-10-10-10-8--8--8--8----|

|----------------------------|---------------||
|----------------------------|---------------||
|----------------------------|---------------||
|----------------------------|---------------||
|--3--3--3--3--5------5------|--0---Let Ring-||
|--3--3--3--3--5------5------|--0------------||
E|-----------------------------------------------------------------------------------|____
Outros vídeos desta música
    0 exibições
      • ½ Tom
      • Am
      • Bbm
      • Bm
      • Cm
      • C#m
      • Dm
      • Ebm
      • Em
      • Fm
      • F#m
      • Gm
      • G#m
    • Adicionar à lista

    Afinação da cifra

    Afinador online

      0 comentários

      Ver todos os comentários

      Conseguiu tocar?

      0Tocaram0Ainda não

      Grave um vídeo tocando Killing Position e nos envie!

      Toque também

      1. Imagem do artista TerrorvisionMiddleman Terrorvision
      2. Imagem do artista The BluetonesKeep The Home Fires Burning The Bluetones
      3. Imagem do artista KenickieIn Your Car Kenickie
      4. Imagem do artista 3 Colours RedFit Boy Faint Girl 3 Colours Red

      Entre para o Cifra Club PRO

      Tenha acesso a benefícios exclusivos no App e no Site

      • Chega de anúncios

      • Badges exclusivas

      • Mais recursos no app do Afinador

      • Atendimento Prioritário

      • Aumente seu limite de lista

      • Ajude a produzir mais conteúdo

      Cifra Club Pro

      Aproveite o Cifra Club com benefícios exclusivos e sem anúncios
      Cifra Club Pro
      Aproveite o Cifra Club com benefícios exclusivos e sem anúncios
      Ops (: Contenido disponible sólo en portugués.
      OK