Cifra Club

Aprenda

Question !

System Of a Down

Cifra: Principal (violão e guitarra)
tom: C
Afinação: Db  Ab  Db  Gb  Bb  Eb

Intro(no violão)

|-0--------------0----------------0---|-^0--------|
|------0----0------0----0----0------0-|-|0--------|
|--------12---------------12----------|-|12-------|
|---10--------10-----10--------10-----|-|10-------|
|-------------------------------------|-----------|
|-------------------------------------|-----------|


Muito distorcido

|--------------------|------------------------|
|--------------------|------------------------|
|--------------------|------------------------|
|-3--10---8-65656----|------------------------|
|-3--10---8-65656(4x)| 3--101010-888-666-555-6|(4x)
|-3--10---8-65656----|------------------------|

                      Pm. .. .. . . . . . .

Verso(com violão)

|-------------------------------------|
|-------------------------------------|
|-------------------------------------|
|-------4-------------4---------------|
|---5h7---7-5h7---5h7---7-5h7-5-------|
|-0-------------0---------------------|

|----------------------------------------------|
|----------------------------------------------|
|----------------------------------------------|
|-------4-------------4------------------------|
|---5h7---7-5h7---5h7---7-5h7-5---1/8\\--1/10\\--|
|-0-------------0------------------------------|


Pre-Chorus: Violão

|-3-----3-----3-----3-----|
|-0-----0-----0-----0-----|
|-0-----0-----0-----0-----|
|-2-----2-----2-----2-----|
|-------------------------|
|-------------------------|


Chorus: Muito distorcido
                       3x

|------------------------|------------------------|
|------------------------|------------------------|
|------------------------|------------------------|
|--------5p3--------5p3--|--------10p8--------11p8|
|-3----------3-----------|-8----------8-----------|
|-3--3-3-----3--3-3------|-8--8-8-----8--8-8------|

Pm   . .        . .           . .        . .

Bridge

|-----------------------------------------|
|-----------------------------------------|
|-----------------------------------------|
|-----------------------------------------|
|-----------------------------------------|
|-3-333-0--3-333-0--3-333-0--3-333-0------|

Pm. ....    . ....    . ....    . ....


|-----------------------------------------|
|-----------------------------------------|
|-----------------------------------------|
|-----------------------------------------|
|-----------------------------------------|
|-88888888888888888888888888888888888888--|

|--------------------|
|--------------------|
|--------------------|
|-3--10---8-65656----|
|-3--10---8-65656----|
|-3--10---8-65656----|
Composição de Daron Malakian / Serj Tankian
Colaboração e revisão:
  • Gabriel Bucci
  • israelrodriguess
157.005 exibições
    • ½ Tom
    • A
    • Bb
    • B
    • C
    • Db
    • D
    • Eb
    • E
    • F
    • F#
    • G
    • Ab
  • Adicionar à lista

    0 comentários

    Ver todos os comentários

    Conseguiu tocar?

    22 Tocaram 6 Ainda não

    Grave um vídeo tocando Question ! e nos envie!

    00:00 / 00:00
    Outros vídeos desta música
    Repetir Qualidade Automático
    Outros vídeos desta música
    00:00 / 00:00
    Automático

    Cifra Club Pro

    Aproveite o Cifra Club com benefícios exclusivos e sem anúncios
    Cifra Club Pro
    Aproveite o Cifra Club com benefícios exclusivos e sem anúncios
    OK