Cifra Club

A Decade Under The Influence

Taking Back Sunday

Cifra: Versão 8 (violão e guitarra)
tom: A
Tuning:
Guitars 1&2 Drop D
Bass (tabbed for guitar) Standard
Keyboard (tabbed for guitar) Standard


INTRO
Guitar 1
E|-----0~~~~~~~0~~~~~~~0~~~~~~~0~~~|
B|-----5~~~~~~~5~~~~~~~5~~~~~~~5~~~|
G|-----6~~~~~~~6~~~~~~~6~~~~~~~6~~~|
D|-----7-------7-------7-------7---|
A|-0-0---0-0-0---0-0-0---0-0-0---0-|2x
E|---------------------------------|


PRE-VERSE
Guitar 1
E|-----0~~~~~~~0~~~~~~~0~~~~~~~0~~~|
B|-----5~~~~~~~5~~~~~~~5~~~~~~~5~~~|
G|-----6~~~~~~~6~~~~~~~6~~~~~~~6~6-|
D|---7-7-7---7-7-7---7-7-7---7-7-7-|
A|-5-5---5-5-5---5-5-5---5-5-5---5-|1x
E|---------------------------------|
 |
 |
Bass (tabbed for guitar)
E|---------------------------------|
B|---------------------------------|
G|---------------------------------|
D|---------------------------------|
A|-55555555555555555555555555555555|1x
E|---------------------------------|


VERSE
Guitar 1 (Delay & Flange Effects)
E|-----------------0(0-0-0-0-0-0-0)---------------------------------|
B|-5(5-5-5-5-5-5-5)5(5-5-5-5-5-5-5)2(2-2-2-2-2-2-2)5(5-5-5-5-5-5-5)-|
G|-6(6-6-6-6-6-6-6)6(6-6-6-6-6-6-6)2(2-2-2-2-2-2-2)2(2-2-2-2-2-2-2)-|
D|---------------------------------0(0-0-0-0-0-0-0)0(0-0-0-0-0-0-0)-|
A|------------------------------------------------------------------|1x
E|------------------------------------------------------------------|

(Cont.)
E|-----------------4(4-4-4-4-4-4-4)---------------------------------|
B|-5(5-5-5-5-5-5-5)5(5-5-5-5-5-5-5)2(2-2-2-2-2-2-2)5(5-5-5-5-5-5-5)-|
G|-6(6-6-6-6-6-6-6)6(6-6-6-6-6-6-6)2(2-2-2-2-2-2-2)2(2-2-2-2-2-2-2)-|
D|---------------------------------0(0-0-0-0-0-0-0)0(0-0-0-0-0-0-0)-|
A|------------------------------------------------------------------|1x
E|------------------------------------------------------------------|


     CHORUS
     Guitar 2
     E|---------------------------------|
     B|---------------------------------|
     G|-----------------7777777777777777|
     D|-777777777777777-7777777777777777|
     A|-777777777777777-5555555555555555|3x
     E|-7777777777777770----------------|


VERSE
Guitar 1 (Delay & Flange Effects)
E|-----------------0(0-0-0-0-0-0-0)---------------------------------|
B|-5(5-5-5-5-5-5-5)5(5-5-5-5-5-5-5)2(2-2-2-2-2-2-2)5(5-5-5-5-5-5-5)-|
G|-6(6-6-6-6-6-6-6)6(6-6-6-6-6-6-6)2(2-2-2-2-2-2-2)2(2-2-2-2-2-2-2)-|
D|---------------------------------0(0-0-0-0-0-0-0)0(0-0-0-0-0-0-0)-|
A|------------------------------------------------------------------|1x
E|------------------------------------------------------------------|

(Cont.)
E|-----------------4(4-4-4-4-4-4-4)---------------------------------|
B|-5(5-5-5-5-5-5-5)5(5-5-5-5-5-5-5)2(2-2-2-2-2-2-2)5(5-5-5-5-5-5-5)-|
G|-6(6-6-6-6-6-6-6)6(6-6-6-6-6-6-6)2(2-2-2-2-2-2-2)2(2-2-2-2-2-2-2)-|
D|---------------------------------0(0-0-0-0-0-0-0)0(0-0-0-0-0-0-0)-|
A|------------------------------------------------------------------|1x
E|------------------------------------------------------------------|


     CHORUS
     Guitar 2
     E|---------------------------------|
     B|---------------------------------|
     G|-----------------7777777777777777|
     D|-777777777777777-7777777777777777|
     A|-777777777777777-5555555555555555|2x
     E|-7777777777777770----------------|

     Guitar 1
     E|---------------------------------|
     B|---------------------------------|
     G|---------------------------------|
     D|---------------------------------|
     A|---------------------------------|1x
     E|-16\-----------------------------|
      |
      |
     Guitar 2
     E|---------------------------------|
     B|---------------------------------|
     G|---------------------------------|
     D|-444-4-44-44-4444222-2-22-22-2222|
     A|-444-4-44-44-4444222-2-22-22-2222|1x
     E|-444-4-44-44-4444222-2-22-22-2222|
    

     Guitar 1
     E|---------------------------------|
     B|---------------------------------|
     G|-7---------------7-------77777777|
     D|-x---------------x-------xxxxxxxx|
     A|-5---------------5-------55555555|1x
     E|---------------------------------|
      |
      |
     Guitar 2
     E|---------------------------------|
     B|---------------------------------|
     G|---------------------------------|
     D|-0-------------------------------|
     A|-00000000000000000000000000000000|1x
     E|-00000000000000000000000000000000|
       pm...............................


PRE-BRIDGE
Guitar 1
E|-------------------------------------------------------|
B|-------------------------------------------------------|
G|-6/7-7\6-6-6---6---6--/7-7\6-6-6---6/9-9-999-7-77-7777-|
D|-x---x---x-x---x---x-----x---x-x---x---x-xxx-x-xx-xxxx-|
A|-4/5-5\4-4-4---4---4--/5-5\4-4-4---4/7-7-777-5-55-5555-|2x
E|-------------------------------------------------------|
 |
 |
Guitar 2
E|-------------------------------------------------------|
B|-------------------------------------------------------|
G|-------------------------------------------------------|
D|-4-4-4-4-4-4---4---4---4-4-4-4-4---4-0-0-000-0-00-0000-|
A|-4-4-4-4-4-4---4---4---4-4-4-4-4---4-0-0-000-0-00-0000-|2x
E|-4-4-4-4-4-4---4---4---4-4-4-4-4---4-0-0-000-0-00-0000-|

Guitar 1
E|-------------------------------------------------------|
B|-------------------------------------------------------|
G|-6/7-7\6-6-6---6---6--/7-7\6-6-6---6/9-9-999-7~~~~~~~~~|
D|-x---x---x-x---x---x-----x---x-x---x---x-xxx-x---------|
A|-4/5-5\4-4-4---4---4--/5-5\4-4-4---4/7-7-777-5~~~~~~~~~|1x
E|-------------------------------------------------------|
 |
 |
Guitar 2
E|-------------------------------------------------------|
B|-------------------------------------------------------|
G|-------------------------------------------------------|
D|-4-4-4-4-4-4---4---4---4-4-4-4-4---4-0-0-000-0~~~~~~~~~|
A|-4-4-4-4-4-4---4---4---4-4-4-4-4---4-0-0-000-0~~~~~~~~~|1x
E|-4-4-4-4-4-4---4---4---4-4-4-4-4---4-0-0-000-0~~~~~~~~~|


BRIDGE
Guitar 1
E|-----0~~~~~~~~~0~~~~~~-------------------|
B|-------0~~~~~~~~~0~~~~-------------------|
G|-----------------------------------------|
D|-----------------------------------------|
A|-----------------------------------------|2x
E|-----------------------------------------|
 |
 |
Guitar 2
E|-0~~~~~~~~~0~~~~~~~~~2~~~~~~~~~0~~~~~~~~~|
B|-0~~~~~~~~~0~~~~~~~~~3~~~~~~~~~2~~~~~~~~~|
G|-2~~~~~~~~~1~~~~~~~~~2~~~~~~~~~2~~~~~~~~~|
D|-2~~~~~~~~~2~~~~~~~~~0~~~~~~~~~0~~~~~~~~~|
A|-x---------2~~~~~~~~~0~~~~~~~~~0~~~~~~~~~|2x
E|-2~~~~~~~~~----------0~~~~~~~~~0~~~~~~~~~|
   A         A         A         A




Guitar 1
E|-----0~~~~~~~~~0~~~~~--------------------|
B|-------0~~~~~~~~~0~~~--------------------|
G|-----------------------------------------|
D|-----------------------------------------|
A|-----------------------------------------|1x
E|-----------------------------------------|
 |
 |
Guitar 2
E|-0~~~~~~~~~0~~~~~~~~~2~~~~~~~~~0~~~~~~~~~|
B|-0~~~~~~~~~0~~~~~~~~~3~~~~~~~~~2~~~~~~~~~|
G|-2~~~~~~~~~1~~~~~~~~~2~~~~~~~~~2~~~~~~~~~|
D|-2~~~~~~~~~2~~~~~~~~~0~~~~~~~~~0~~~~~~~~~|
A|-x---------2~~~~~~~~~0~~~~~~~~~0~~~~~~~~~|1x
E|-2~~~~~~~~~----------0~~~~~~~~~0~~~~~~~~~|
   A         A         A         A
 |
 |
Keyboard (tabbed for guitar)
E|17-16-----17-16--------------------------|
B|------17~~~~~~~~17~~~~~~~~~15-14~~~~~~~~~|
G|--------------------14~~~~~--------------|
D|-----------------------------------------|
A|-----------------------------------------|1x
E|-----------------------------------------|

Guitar 1
E|-----0~~~~~~~~~0~~~~~~-------------------|
B|-------0~~~~~~~~~0~~~~-------------------|
G|-----------------------------------------|
D|-----------------------------------------|
A|-----------------------------------------|1x
E|-----------------------------------------|
 |
 |
Guitar 2
E|-0~~~~~~~~~0~~~~~~~~~2~~~----------------|
B|-0~~~~~~~~~0~~~~~~~~~3~~~----------------|
G|-2~~~~~~~~~1~~~~~~~~~2~~~----------------|
D|-2~~~~~~~~~2~~~~~~~~~0~~~----------------|
A|-x---------2~~~~~~~~~0~~~0000000000000000|2x
E|-2~~~~~~~~~----------0~~~0000000000000000|
   A         A         A  pm...............  
 |
 |
Keyboard (tabbed for guitar)
E|17-16-----17-16--------------------------|
B|------17~~~~~~~~17~~~~~~~~~15-14~~~~~~~~~|
G|--------------------14~~~~~--------------|
D|-----------------------------------------|
A|-----------------------------------------|1x
E|-----------------------------------------|


OUTTRO
Guitar 2
E|-------------------------------------------|
B|-------------------------------------------|
G|-------------------------------------------|
D|-4-444-44-44-444-4444-2-222-22-22-222-2222-|
A|-4-444-44-44-444-4444-2-222-22-22-222-2222-|> 
E|-4-444-44-44-444-4444-2-222-22-22-222-2222-|
 |
 |
Keyboard (tabbed for guitar)
E|17-16-----17-16---------------------------|
B|------17~~~~~~~~17~~~~~~~~~15-14~~~~~~~~~-|
G|--------------------14~~~~~---------------|
D|------------------------------------------|
A|------------------------------------------|>
E|------------------------------------------|

(cont.)
E|-------------------------------------------|
B|-------------------------------------------|
G|-------------------------------------------|
D|-0-000-00-00-000-0000-0-000-00-00-000-0000-|
A|-0-000-00-00-000-0000-0-000-00-00-000-0000-|3x 
E|-0-000-00-00-000-0000-0-000-00-00-000-0000-|
 |
 |
(cont.)
E|17-16-----17-16---------------------------|
B|------17~~~~~~~~17~~~~~~~~~15-14~~~~~~~~~-|
G|--------------------14~~~~~---------------|
D|------------------------------------------|
A|------------------------------------------|3x
E|------------------------------------------|

Guitar 2
E|------------------------------------------------------------|
B|------------------------------------------------------------|
G|------------------------------------------------------------|
D|-4-444-44-44-444-4444-2-222-22-22-222-2222-0~~~~~~~~~~~~~~~~|
A|-4-444-44-44-444-4444-2-222-22-22-222-2222-0~~~~~~~~~~~~~~~~|1x
E|-4-444-44-44-444-4444-2-222-22-22-222-2222-0~~~~~~~~~~~~~~~~|
 |
 |
Keyboard (tabbed for guitar)
E|17-16-----17-16---------------------------------------------|
B|------17~~~~~~~~17~~~~~~~~~15-14~~~~~~~~~-------------------|
G|--------------------14~~~~~---------------------------------|
D|------------------------------------------------------------|
A|------------------------------------------------------------|1x
E|------------------------------------------------------------|
00:00 / 00:00
Outros vídeos desta música
Repetir
Outros vídeos desta música
Composição de Adam Lazzara / Eddie Reyes / Fred Mascherino / Matthew Rubano
98 exibições
    • ½ Tom
    • A
    • Bb
    • B
    • C
    • Db
    • D
    • Eb
    • E
    • F
    • F#
    • G
    • Ab
  • Adicionar à lista

    0 comentários

    Ver todos os comentários

    Conseguiu tocar?

    0 Tocaram 0 Ainda não

    Grave um vídeo tocando A Decade Under The Influence e nos envie!

    Entre para oCifra Club PRO

    Tenha acesso a benefícios exclusivos no App e no Site

    • Chega de anúncios

    • Prioridade de compra em lançamentos

    • Mais recursos no app do Afinador

    • Atendimento Prioritário

    • Descontos nos produtos Cifra Club

    • Ajude a produzir mais conteúdo

    00:00 / 00:00

    Cifra Club Pro

    Aproveite o Cifra Club com benefícios exclusivos e sem anúncios
    Cifra Club Pro
    Aproveite o Cifra Club com benefícios exclusivos e sem anúncios
    OK