Cifra Club

Aprenda

Safe And Sound

Taylor Swift

Cifra: Principal (violão e guitarra)
tom: G (forma dos acordes no tom de C) Capotraste na 7ª casa
[Intro] Dm  Am  F7M  C  C/B
        Dm  Am  F7M  C

   Dm          Am      F7M 
E|-----1p0----------------------------------|
B|-----3-----------1------------------------|
G|---2-------------2---0h2-2--2-0-----------|
D|-0-------0-----2-----3------3-------------|
A|-------------0----------------------------|
E|------------------------------------------|

   C         C/B 
E|------------------------------------------|
B|-----------------1------------------------|
G|-------0-------0--------------------------|
D|-0h2-2------------------------------------|
A|-3---------0h2----------------------------|
E|------------------------------------------|

   Dm          Am        F7M       C 
E|-----1p0----------------------------------|
B|-----3-------0h1---1-----1-------1--------|
G|---2-------------------2-----0------------|
D|-0-------0-------2-----3---3--------------|
A|-------------0-------------------3--------|
E|------------------------------------------|

[Primeira Parte]

   Dm             Am       F7M 
E|-0h1-----1p0----------0-------------------|
B|-------3--------0h1---1-------------------|
G|-----2--------------2----0h2-2---2-0------|
D|-0-----------0-----------3-----3----------|
A|----------------0-------------------------|
E|------------------------------------------|

   C         C/B 
E|------------------------------------------|
B|-----------------1------------------------|
G|-------0-------0--------------------------|
D|-0h2-2------------------------------------|
A|-3---------0h2----------------------------|
E|------------------------------------------|

   Dm          Am        F7M       C 
E|-----1p0----------------------------------|
B|-----3-----------1-------1-------1--------|
G|---2-------------2-----2-----0------------|
D|-0-------0-----2-------3---3--------------|
A|-------------0-------------------3--------|
E|------------------------------------------|

   Dm             Am       F7M 
E|-0h1-----1p0----------0-------------------|
B|-------3--------0h1---1-------------------|
G|-----2--------------2----0h2-2---2-0------|
D|-0-----------0-----------3-----3----------|
A|----------------0-------------------------|
E|------------------------------------------|

   C         C/B 
E|------------------------------------------|
B|-----------------1------------------------|
G|-------0-------0--------------------------|
D|-0h2-2------------------------------------|
A|-3---------0h2----------------------------|
E|------------------------------------------|

Dm                          Am
I remember tears streaming down your face
        F7M                      C  C/B
When I said, I'll never let you go
     Dm                Am                  F7M   C
When all those shadows almost killed your light
Dm          Am     
I remember you said
       F7M            C   C/B
Don't leave me here alone

[Pré-Refrão] 

   G              F7M
E|----------------------0-------------------|
B|-----0--1---3-----1-3---------------------|
G|----------------2-------2-----------------|
D|---0------0-----3-------------------------|
A|------------------------------------------|
E|-3----------------------------------------|

    G
But all that's dead 
                       F7M
And gone and passed tonight

[Refrão]

   F7M                   C        G
E|-------------------0---3---3p0----0-------|
B|-1-----1-----3------------------3---3---1-|
G|-----2-----2-----2-------0----------------|
D|-3-3-----3-----3--------------------------|
A|-----------------------3------------------|
E|--------------------------------3-----3---|

   F7M                   C        G
E|-------------------0---3---3p0----0-------|
B|-------1-----3------------------3---3---1-|
G|-2---2-----2-----2-------0----------------|
D|-3-3-----3-----3--------------------------|
A|-----------------------3------------------|
E|--------------------------------3-----3---|

   F7M                   C        G
E|-------------------0---3---3p0----0-------|
B|-------1-----3------------------3---3---1-|
G|-2---2-----2-----2-------0----------------|
D|-3-3-----3-----3--------------------------|
A|-----------------------3------------------|
E|--------------------------------3-----3---|
  
   Am  G   F7M
E|---------------0--------------------------|
B|-----0-----1-3----------------------------|
G|-2---0---2-------2------------------------|
D|-----0---3--------------------------------|
A|-0----------------------------------------|
E|-----3------------------------------------|

F7M                 C
    Just close your eyes
     G            F7M
The sun is going down
             C
You'll be alright
   G                 F7M
No one can hurt you now
              C
Come morning light
 G               Am  G    F7M
You and I'll be safe and sound

( Dm  Am  F7M  C  C/B )
( Dm  Am  F7M  C )

   Dm             Am       F7M 
E|-0h1-----1p0----------0-------------------|
B|-------3--------0h1---1-------------------|
G|-----2--------------2----0h2-2---2-0------|
D|-0-----------0-----------3-----3----------|
A|----------------0-------------------------|
E|------------------------------------------|

   C         C/B 
E|------------------------------------------|
B|-----------------1------------------------|
G|-------0-------0--------------------------|
D|-0h2-2------------------------------------|
A|-3---------0h2----------------------------|
E|------------------------------------------|

   Dm          Am        F7M          C 
E|-----1p0-----------0----------------------|
B|-----3-------0h1---1---1-----1------1-----|
G|---2-------------2---------2-----0--------|
D|-0-------0-------------3-3-----3----------|
A|-------------0----------------------3-----|
E|------------------------------------------|

[Segunda Parte]

 Dm                 Am
Don't you dare look out your window
 F7M                     C  C/B
Darling everything's on fire
     Dm              Am               F7M  C
The war outside our door keeps raging on
 Dm      Am      F7M  C  C/B
Hold on to this lullaby

[Pré-Refrão]

G                      F7M
Even when the music's gone, gone

[Refrão]

F7M                C
   Just close your eyes
     G           F7M
The sun is going down
             C
You'll be alright
   G                 F7M
No one can hurt you now
              C
Come morning light
 G               Am  G    F7M
You and I'll be safe and sound

[Ponte]

F7M  G   Am  Em
Oh,  oh, oh, oh
F7M  G   Am  Em
Oh,  oh, oh, oh

[Refrão]

F7M                C    G
   Just close your eyes
F7M             C    G
   You'll be alright
F7M              C
   Come morning light
 G               Am  G    F7M
You and I'll be safe and sound

 F7M  C   G
Huu, huu,huu
 F7M  C   G
Huu, huu,huu
 F7M  C   G
Huu, huu,huu
 F7M  C   G
Huu, huu,huu
 F7M  C   G
Huu, huu,huu
 F7M  C   G
Huu, huu,huu
Composição de John Paul White / Joy Williams / T-Bone Burnett / Taylor Swift
Colaboração e revisão:
  • Thiago Almeida
  • Angra Caroline
  • caroline
213.369 exibições
    • ½ Tom
    • A
    • Bb
    • B
    • C
    • Db
    • D
    • Eb
    • E
    • F
    • F#
    • G
    • Ab
  • Adicionar à lista

    0 comentários

    Ver todos os comentários

    Conseguiu tocar?

    47 Tocaram 5 Ainda não

    Grave um vídeo tocando Safe And Sound e nos envie!

    00:00 / 00:00
    Outros vídeos desta música
    Repetir Qualidade Automático
    Outros vídeos desta música
    00:00 / 00:00
    Automático

    Cifra Club Pro

    Aproveite o Cifra Club com benefícios exclusivos e sem anúncios
    Cifra Club Pro
    Aproveite o Cifra Club com benefícios exclusivos e sem anúncios
    OK