Cifra Club

Aprenda

Style

Taylor Swift

Cifra: Principal (violão e guitarra)
tom: Bm
[Intro] Bm7(11)  G   Bm7(11)  G


   Bm7(11)
E|------------------------------------------|
B|----3-3-3-3--3-3-x--0-0-0-----------------|
G|-2--2-2-2-2--2-2-x--2-2-2-----------------|
D|-0----------------------------------------|
A|-2----------------------------------------|
E|------------------------------------------|

   Bm7(11)
E|------------------------------------------|
B|----3-3p0-0-0--x-0-0-0-x-0-0-0------------|
G|-2--2-2---2-2--x-2-2-2-x-2-2-2------------|
D|-0-------------x-------x------------------|
A|-2----------------------------------------|
E|------------------------------------------|

   G
E|------------------------------------------|
B|----3-3-3-3--3-3-x--0-0-0-----------------|
G|-0--0-0-0-0--0-0-x--0-0-0-----------------|
D|-0----------------------------------------|
A|-2----------------------------------------|
E|-3----------------------------------------|

   G
E|------------------------------------------|
B|----3-3p0-0-0--x-0-0-0-x-0-0-0------------|
G|-0--0-0---0-0--x-0-0-0-x-0-0-0------------|
D|-0-------------x-------x------------------|
A|-2----------------------------------------|
E|-3----------------------------------------|

   Bm7(11)
E|------------------------------------------|
B|-----3---3---3---3-3-3-3---0-0-0----------|
G|-2-2-2-2-2-2-2-2-2-2-2-2-2-2-2-2----------|
D|-0-0-0-0-0-0-0-0-0-0-0-0-0-0-0-0----------|
A|-2-------x-------2-------x----------------|
E|---------x---------------x----------------|

   Bm7(11)
E|------------------------------------------|
B|-----3---3p0-0-0---0-0-0---0-0-0----------|
G|-2-2-2-2-2---2-2-2-2-2-2-2-2-2-2----------|
D|-0-0-0-0-0---0-0-0-0-0-0-0-0-0-0----------|
A|-2-------x-------2-------x----------------|
E|---------x---------------x----------------|

   G
E|------------------------------------------|
B|-----3---3---3---3-3-3-3---0-0-0----------|
G|-0-0-0-0-0-0-0-0-0-0-0-0-0-0-0-0----------|
D|-0-0-0-0-0-0-0-0-0-0-0-0-0-0-0-0----------|
A|-2-------x-------2-------x----------------|
E|-3-------x-------3-------x----------------|

   G
E|------------------------------------------|
B|-----3---3p0-0-0---0-0-0---0-0-0----------|
G|-0-0-0-0-0---0-0-0-0-0-0-0-0-0-0----------|
D|-0-0-0-0-0---0-0-0-0-0-0-0-0-0-0----------|
A|-2-------x-------2-------x----------------|
E|-3-------x-------3-------x----------------|

[Primeira Parte]

 Bm7(11)
Midnight

He come and pick me up
    G
No headlights
   Bm7(11)
A long drive

Could end in burn in flames or
 G
Paradise
     Bm7(11)
Fade into view, oh
                                  
It's been a while since
             G
I have even heard from you

[Segunda Parte]

Em
  I should just tell you

To leave cause I
F#m7
    Know exactly where It leads but I
Bm
   Watch us go round and round each time

[Refrão]

              D
You got that James Dean 
              
Daydream look in your eye
    D/A         G
And I got that red lip

Classic thing that you like
      G/A        D
And when we go crashing down

We come back every time
          D/A     G
Cause we never go out of style

We never go out of style

     G/A      D
You got that long hair slicked back

White t-shirt
    D/A         G
And I got that good girl faith

And a tight little skirt
      G/A        Bm
And when we go crashing down

We come back every time
          Bm/A    G
Cause we never go out of style 
                         G/A
We never go out of style

[Primeira Parte]

 Bm7(11)
So it goes
                              
He can't keep this
          G
Wild eyes on the road
 Bm7(11)
Takes me home
                        
Lights are off he's taken
G
Off his coat
      Bm7(11)
I say I heard
                                        
That you've been out 
                    G
And about with some other girl

[Segunda Parte]

Em
   He says what you heard is true but I 
F#m7
     Can't stop thinking about you and I
Bm
   I say I've been there too a few times

[Refrão Final]

              D
You got that James Dean 
              
Daydream look in your eye
    D/A         G
And I got that red lip

Classic thing that you like
      G/A        D
And when we go crashing down

We come back every time
          D/A     G
Cause we never go out of style

We never go out of style

     G/A      D
You got that long hair slicked back

White t-shirt
    D/A         G
And I got that good girl faith

And a tight little skirt
      G/A        Bm
And when we go crashing down

We come back every time
          Bm/A    G
Cause we never go out of style 
                         
We never go out of style

 G/A     D
Take me home
      D/A     G
Just take me home
      G/A     D   D/A  G
Just take me home
 
              D
You got that James Dean 
              
Daydream look in your eye
    D/A         G
And I got that red lip

Classic thing that you like
      G/A        Bm
And when we go crashing down

We come back every time
          Bm/A    G
Cause we never go out of style
                         G/A  D
We never go out of style
Composição de Ali Payami / Max Martin / Shellback / Taylor Swift
Colaboração e revisão:
71.577 exibições
  • Simplificar cifra
    • ½ Tom
    • Am
    • Bbm
    • Bm
    • Cm
    • C#m
    • Dm
    • Ebm
    • Em
    • Fm
    • F#m
    • Gm
    • G#m
  • Adicionar à lista

    0 comentários

    Ver todos os comentários

    Conseguiu tocar?

    8 Tocaram 0 Ainda não

    Grave um vídeo tocando Style e nos envie!

    00:00 / 00:00
    Outros vídeos desta música
    Repetir Qualidade Automático
    Outros vídeos desta música
    00:00 / 00:00
    Automático
    Capítulos
    • Tocando a Música
    • Dicas Iniciais / Equipamentos
    • Acordes da Introdução e Primeira Parte
    • Tocando a Introdução e Primeira Parte
    • Ensinando a Introdução e Primeira Parte
    • Acordes da Segunda Parte
    • Tocando a Segunda Parte
    • Acordes do Refrão
    • Tocando o Refrão
    • Ensinando o Ritmo do Refrão
    • Encerramento
    • Ficha Técnica

    Cifra Club Pro

    Aproveite o Cifra Club com benefícios exclusivos e sem anúncios
    Cifra Club Pro
    Aproveite o Cifra Club com benefícios exclusivos e sem anúncios
    OK