Cifra Club

Einstein

Tech N9ne

Cifra: Principal (violão e guitarra)
Selo Cifra Club: esta cifra foi revisada para atender aos critérios oficiais da nossa Equipe de Qualidade.
tom: C
E|E|----------------------------------------------------------------------------||
                               Einstein - Tech N9ne
E|E|----------------------------------------------------------------------------||

Album: Anghellic
Year: 2001
Tabbed by: Istarii

Tuning: Standard

  Fig. 1                                   End Fig. 1
E|-------------------------|-------------------------|
B|-------------------------|-------------------------|
G|-------------------------|-------------------------|
D|-------------------------|-------------------------|
A|-2-2-2--3--0--2-0-2--2---|-2-2-2--3--0--2-0-2--2---|
E|-------------------------|-------------------------|

  Fig. 2                                   End Fig. 2
E|-------------------------|-------------------------|
B|------------------1--3---|------------------1--3---|
G|-4-4p2h4------2-4--------|-4-4p2h4------2-4--------|
D|-------------------------|-------------------------|
A|-------------------------|-------------------------|
E|-------------------------|-------------------------|

  Fig. 3                                   End Fig. 3
E|----------------------------------------------10---| x2
B|-12-12p10h12------------------------10-12-13-------|
G|---------------------------------------------------|
D|---------------------------------------------------|
A|---------------------------------------------------|
E|---------------------------------------------------|


Fig. 1 = Follows the bass line
Fig. 2 = Organ Melody
Fig. 3 = 3rd Verse (2:58-3:12) Organ raises octave
Outros vídeos desta música
6 exibições
    • ½ Tom
    • A
    • Bb
    • B
    • C
    • Db
    • D
    • Eb
    • E
    • F
    • F#
    • G
    • Ab
  • Adicionar à lista

Afinação da cifra

Afinador online

    0 comentários

    Ver todos os comentários

    Entre para o Cifra Club PRO

    Tenha acesso a benefícios exclusivos no App e no Site

    • Chega de anúncios

    • Mais recursos no app do Afinador

    • Atendimento Prioritário

    • Aumente seu limite de lista

    • Ajude a produzir mais conteúdo

    Cifra Club Pro

    Aproveite o Cifra Club com benefícios exclusivos e sem anúncios
    Cifra Club Pro
    Aproveite o Cifra Club com benefícios exclusivos e sem anúncios
    OK