Cifra Club

Nineteen

Tegan And Sara

Cifra: Principal (violão e guitarra)
Selo Cifra Club: esta cifra foi revisada para atender aos critérios oficiais da nossa Equipe de Qualidade.
tom: C
Chords Used:
E|--0--|--0--|-----|-----|-----|-----|-----|
B|--1--|--0--|--0--|--0--|--0--|--0--|--1--|
G|--0--|--0--|--0--|--0--|--0--|--0--|--0--|
D|--2--|--2--|--7--|--0--|--5--|--5--|--0--|
A|--3--|--2--|--5--|--2--|--3--|--2--|--2--|
E|-----|--0--|-----|--3--|-----|-----|--3--|
    C    Em   Gadd9   G    C2    Em2  Cmaj9


[Verse I:]
| C | Em | Gadd9 | Gadd9 | x3
|  C  |  Em  |  G  |  G  | x2
I felt you in my legs before I ever met you
And when I laid beside you for the first time I told you
I feel you in my heart and I don't even know you          
And now we're saying bye, bye, bye
Now we're saying bye, bye, bye


[Chorus I:]
C2 | Em2 | Cmaj9 | Cmaj9 | x2
I was nineteen, calling


[Verse II:]
| C | Em | Gadd9 | Gadd9 | x3
|  C  |  Em  |  G  |  G  | x2
I felt you in my life before I ever thought to
Feel the need to lay down beside you and tell you
I feel you in my heart and I don't even know you
And now we're saying bye, bye, bye
Now we're saying bye, bye, bye


[Chorus II:]
C2 | Em2 | Cmaj9 | Cmaj9 | x4
I was nineteen, call me
I was nineteen, call me


[Bridge]
E|-----------------------------------------------------------------|--|
B|-----0-------0-------0-------0-------0-------0-------1-------1---|--|
G|-------0-------0-------0-------0-------0-------0-------0-------0-|--|
D|---9-------9-------7-------7-------0-------0-------2-------2-----| x2|
A|-7-------7-------5-------5-----------------------3-------3-------|--|
E|---------------------------------3-------3-----------------------|--|

E|-----------------------------------------------------------------|--|
B|-----0-------0-------1-------1-------0-------0-------0-------0---|--|
G|-------0-------0-------0-------0-------0-------0-------0-------0-|--|
D|---2-------2-------2-------2-------0-------0-------0-------0-----| x2|
A|-----------------3-------3---------------------------------------|--|
E|-0-------0-----------------------3-------3-------3-------3-------|--|


Flew home, back to where we met
Stayed inside I was so upset
Cooked up a plan so good except
I was all alone, you were all I had
Love you, you were all I had
Love me, I was yours right? 


[Chorus III:]
C2 | Em2 | Cmaj9 | Cmaj9 | x4
I was nineteen, call me
I was nineteen, call me
Outros vídeos desta música
    36 exibições
      • ½ Tom
      • A
      • Bb
      • B
      • C
      • Db
      • D
      • Eb
      • E
      • F
      • F#
      • G
      • Ab
    • Adicionar à lista

    Afinação da cifra

    Afinador online

      0 comentários

      Ver todos os comentários

      Conseguiu tocar?

      0Tocaram0Ainda não

      Grave um vídeo tocando Nineteen e nos envie!

      Toque também

      1. Imagem do artista Rilo KileyPortions For Foxes Rilo Kiley
      2. Imagem do artista Uh Huh HerExplode Uh Huh Her
      3. Imagem do artista An HorsePostcards An Horse
      4. Imagem do artista Sick Of SarahGiving Up Sick Of Sarah

      Entre para o Cifra Club PRO

      Tenha acesso a benefícios exclusivos no App e no Site

      • Chega de anúncios

      • Badges exclusivas

      • Mais recursos no app do Afinador

      • Atendimento Prioritário

      • Aumente seu limite de lista

      • Ajude a produzir mais conteúdo

      Cifra Club Pro

      Aproveite o Cifra Club com benefícios exclusivos e sem anúncios
      Cifra Club Pro
      Aproveite o Cifra Club com benefícios exclusivos e sem anúncios
      OK