Cifra Club

La Bamba

Temas de Filmes

Cifra: Principal (violão e guitarra)
exibições 393.028
Tom: C
[Intro]

E|--------------------|-----------------------------|
B|--------------------|-----------------------------|
G|----------0----2-0--|----------------------0--2-0-|
D|---------2---3------|-------0-3-3-2-0----2--3-----|
A|---0-2-3------------|-----2------------3----------|
E|-3------------------|---3-------------------------|

                C    F  G    F            C
Para bailar la bamba,     Para bailar la bamba
    F   G       F        C    F  G      F          C        F
Se necesita un poca de gracia,     una poca de gracia para mi para
 G  F         C   F  G  F        C          F     G  F
Tiy ariba y ariba,      ay ariba ariba por ti se re
           C       F     G  F
Por ti se re, por ti se re
           C       F  G    F          C
Yo no soy marinero,    yo no soy marinero
     F   G    F       C        F   G  F
Soy capitan, soy capitan, soy capitan
 C  F   G    F
Bamba, bamba
 C  F   G    F
Bamba, bamba
 C  F   G    F
Bamba, bamba
 C  F  G  F
Bamba
                C    F  G   F              C
Para bailar la bamba,      Para bailar la bamba
    F   G       F        C    F  G     F        C     F
Se necesita un poca de gracia,    una poca de gracia para mi para
 G      F       C  F  G  F
Tiy ariba y ariba

[Solo]

E|----------------------------|-----------------------------|
B|----------------------------|-------0--0(h)2--0------0----|
G|-------(tr)-0---------------|-0--2----------------2-----2-|
D|----------------------------|-----------------------------|
A|----------------------------|-----------------------------|
E|----------------------------|-----------------------------|

E|----------------------------|-----------------------------|
B|----------------------------|-----------------------------|
G|--0--2--0-----0--------0----|-----------------------------|
D|-----------3-----2--3-------|-2--3--0--2-----0------------|
A|----------------------------|-------------3-----2--3--0---|
E|----------------------------|-----------------------------|

E|----------------------------|-----------------------0--1--|
B|----------------------------|--------------0--1--3--------|
G|----------------------------|--------0--2-----------------|
D|-------------------------0--|--2--3-----------------------|
A|-2-----0--------0--2--3-----|-----------------------------|
E|----3-----1--3--------------|-----------------------------|

      (tremolo for 1 bar)
E|-----0--1-----0--1----------|----------(tr)-3-------------|
B|--3--------3----------------|-----------------------------|
G|----------------------------|-----------------------------|
D|----------------------------|-----------------------------|
A|----------------------------|-----------------------------|
E|----------------------------|-----------------------------|

E|--------3/12\3--------------|-5--3(h)5(p)3--1(h)3(p)1(p)0-|
B|----------------------------|-----------------------------|
G|----------------------------|-----------------------------|
D|----------------------------|-----------------------------|
A|----------------------------|-----------------------------|
E|----------------------------|-----------------------------|

E|-1-----0--------0-----------|-----------------------------|
B|----3-----1--3-----1--3-----|--0(h)1(p)0-----0------------|
G|----------------------------|-------------2-----2---------|
D|----------------------------|-----------------------------|
A|----------------------------|-----------------------------|
E|----------------------------|-----------------------------|

E|----------------------------|-----------------------------|
B|----------------------------|-----------------------------|
G|--0(h)2(p)0-----0--------0--|-----------------------------|
D|-------------3-----2--3-----|---2--3----------------------|
A|----------------------------|---------2(h)3(p)2(p)0-------|
E|----------------------------|------------------------3----|

E|----------------------------|--0--1--(tr)-3---------------|
B|----------------------------|-----------------------------|
G|-------------(tr)-0---------|-----------------------------|
D|---0--2--3------------------|-----------------------------|
A|----------------------------|-----------------------------|
E|----------------------------|-----------------------------|

E|----------------------------|------------------------------|
B|----------------------------|-----------1--0---------------|
G|----------------------------|--0--0--2--2--0-------0--2--2-|
D|----------------------------|--2--0--3----------0--0--3--3-|
A|------0--2--7\--------------|----------------2--2----------|
E|---3--------8\--------------|----------------3-------------|

E|----------------------------|
B|---------------------1--0---|
G|---0--0-----0--0--2--2--0---|
D|---2--0--2--2--0--3---------|
A|---------3------------------|
E|----------------------------|

                C    F  G        F         C
Para bailar la bamba,      Para bailar la bamba
    F   G       F        C    F  G      F        C     F
Se necesita un poca de gracia,     una poca de gracia para mi para
 G  F         C   F  G      F     C        F     G  F
Tiy ariba y ariba,     ay ariba ariba por ti se re
           C       F     G  F
Por ti se re, por ti se re

 C  F   G    F
Bamba, bamba
 C  F   G    F
Bamba, bamba
 C  F   G    F
Bamba, bamba
 C  F   G    F
Bamba, bamba
Acordes para:

    0 comentários

      mostrar mais comentários

      Conseguiu tocar?

      17tocaram1ainda não

      Grave um vídeo tocando La Bamba e mande pra gente!

      00:00 / 00:00
      outros vídeos desta música
      repetirqualidadeAutomático
      Outro vídeos desta música
        00:00 / 00:00
        OK