Cifra Club

Pokémon

Temas de TV

Cifra: Principal
exibições 152.218
Tom: A#
E|----------------------------------------------------------|
B|-3--3--3--3--3------------------3--3--3-------------------|
G|---------------5--3-------------------- 5-5/3-~-----------|
D|--------------------5-------------------------------------|
A|----------------------------------------------------------|
E|----------------------------------------------------------|
  Esse meu jeito de viver         Ninguém nunca foi  igual
E|----------------------------------------------------------|
B|-4--4--4--4--6-3-------------------3--3------3------------|
G|-----------------5--3-------------3------5--3-------------|
D|----------------------------------------------------------|
A|----------------------------------------------------------|
E|----------------------------------------------------------|
  A minha vida é fazer            O bem vencer o mal
E|---------------------------------------------- -----------|
B|-3--3--3--3--3------3-------------------------------------|
G|---------------5--3-------------3--3--3-------------------|
D|----------------------------------------5--3--5-----------|
A|----------------------------------------------------------|
E|----------------------------------------------------------|
  Pelo mundo viajarei             Tentando encontrar
E|----------------------------------------------------------|
B|-4-4-4-4-4--4--6--3-------------3--3------3---------------|
G|---------------------5--3------------5--3-----------------|
D|----------------------------------------------------------|
A|----------------------------------------------------------|
E|----------------------------------------------------------|
  Um Pokémon e com o seu poder    Tudo transformar
E|------3---------------------------------------------------|
B|-3--6-----------3--3--------------------------------------|
G|--------3--3--6------6--3---------------------------------|
D|---------------------------5--3---------------------------|
A|----------------------------------------------------------|
E|----------------------------------------------------------|
  Pokémon! Temos que pegar (isso eu sei)
E|-3--3--5/6\5--3-------------------------------------------|
B|------------------6---------------------------------------|
G|----------------------------------------------------------|
D|----------------------------------------------------------|
A|----------------------------------------------------------|
E|----------------------------------------------------------|
  Pegá-los eu tentarei
E|------3--3------3-----------------------------------------|
B|-3--6------6--3---6--3---------3--3------3----------------|
G|-----------------------5--3--3------5--3------------------|
D|----------------------------------------------------------|
A|----------------------------------------------------------|
E|----------------------------------------------------------|
  Pokémon! Juntos teremos que, o mundo defender
E|------3---------------------------------------------------|
B|-3--6-----------3--3--------------------------------------|
G|--------3--3--6------6--3---------------------------------|
D|---------------------------5--3---------------------------|
A|----------------------------------------------------------|
E|----------------------------------------------------------|
  Pokémon! Temos que pegá-los (isso eu sei)
E|-3--3--5/6\5--3-------------------------------------------|
B|------------------6---------------------------------------|
G|----------------------------------------------------------|
D|----------------------------------------------------------|
A|----------------------------------------------------------|
E|----------------------------------------------------------|
  Pegá-los eu tentarei
E|---6--6--6---6-6--6--6--6--5------------------------------|
B|-4---------6----------------------------------------------|
G|----------------------------------------------------------|
D|----------------------------------------------------------|
A|----------------------------------------------------------|
E|----------------------------------------------------------|
  Vai ser grande a emoção, Pokémon!
E|---------3--3--------------3--6--3----------3-------------|
B|-3--3--6-----------4--4--6-------------3--6---------------|
G|----------------------------------------------------------|
D|----------------------------------------------------------|
A|----------------------------------------------------------|
E|----------------------------------------------------------|
  Temos que pegar    Temos que pegar     Pokémon
Acordes para:
    Colaboração e revisão:

    0 comentários

      mostrar mais comentários

      Conseguiu tocar?

      17tocaram1ainda não

      Grave um vídeo tocando Pokémon e mande pra gente!

      00:00 / 00:00
      outros vídeos desta música
      repetirqualidadeautomática
      Outro vídeos desta música
        00:00 / 00:00
        automática
        OK