Cifra Club

A Barata Diz Que Tem

Temas Infantis

Cifra: Principal
exibições 128.457
Tom: C
   A  barata diz que tem  sete saias de filó

E|-3---1-0----0---1---3---3-5---1-0---1--3-0-|
B|---------3---------------------------------|
G|-------------------------------------------|
D|-------------------------------------------|
A|------------|Tirado por Álisson L. Rosa|---|
E|-------------------------------------------|


   É mentira da barata, ela tem é uma só

E|------5-5---5-5-5-5---5-7-10--8-7-5-3------|
B|-1--1--------------------------------------|
G|-------------------------------------------|
D|-------------------------------------------|
A|-------------------------------------------|
E|-------------------------------------------|


  Hahahá, Hohohó,  Ela tem é uma só

E|-3-3-8---0-1-3-----0--3--1-0---------------|
B|-----------------3-----------3-1-----------|
G|-------------------------------------------|
D|-------------------------------------------|
A|-------------------------------------------|
E|-------------------------------------------|


  Hahahá, Hohohó,  Ela tem é uma só

E|-3-3-8---0-1-3-----0--3--1-0---------------|
B|-----------------3-----------3-1-----------|
G|-------------------------------------------|
D|-------------------------------------------|
A|-------------------------------------------|
E|-------------------------------------------|
Acordes para:
    Colaboração e revisão:
    • Álisson Rosa

    0 comentários

      mostrar mais comentários

      Conseguiu tocar?

      17tocaram0ainda não

      Grave um vídeo tocando A Barata Diz Que Tem e mande pra gente!

      00:00 / 00:00
      outros vídeos desta música
      repetirqualidadeautomática
      Outro vídeos desta música
        00:00 / 00:00
        automática
        OK