Cifra Club

A Barata Diz Que Tem

Músicas Infantis

Cifra: Principal (violão e guitarra)
Selo Cifra Club: esta cifra foi revisada para atender aos critérios oficiais da nossa Equipe de Qualidade.
tom: C
A  barata diz que tem  sete saias de filó

E|-3---1-0----0---1---3---3-5---1-0---1--3-0-|
B|---------3---------------------------------|
G|-------------------------------------------|
D|-------------------------------------------|
A|-------------------------------------------|
E|-------------------------------------------|

É mentira da barata, ela tem é uma só

E|------5-5---5-5-5-5---5-7-10--8-7-5-3------|
B|-1--1--------------------------------------|
G|-------------------------------------------|
D|-------------------------------------------|
A|-------------------------------------------|
E|-------------------------------------------|

Hahahá, hohohó,  ela tem é uma só

E|-3-3-8---0-1-3-----0--3--1-0---3-----------|
B|-----------------3-----------3-------------|
G|-------------------------------------------|
D|-------------------------------------------|
A|-------------------------------------------|
E|-------------------------------------------|

Hahahá, hohohó,  ela tem é uma só

E|-3-3-8---0-1-3-----0--3--1-0---------------|
B|-----------------3-----------3-1-----------|
G|-------------------------------------------|
D|-------------------------------------------|
A|-------------------------------------------|
E|-------------------------------------------|
Outros vídeos desta música
209.918 exibições
    • ½ Tom
    • A
    • Bb
    • B
    • C
    • Db
    • D
    • Eb
    • E
    • F
    • F#
    • G
    • Ab
  • Adicionar à lista

Afinação da cifra

Afinador online

    0 comentários

    Ver todos os comentários

    Entre para o Cifra Club PRO

    Tenha acesso a benefícios exclusivos no App e no Site

    • Chega de anúncios

    • Mais recursos no app do Afinador

    • Atendimento Prioritário

    • Aumente seu limite de lista

    • Ajude a produzir mais conteúdo

    Cifra Club Pro

    Aproveite o Cifra Club com benefícios exclusivos e sem anúncios
    Cifra Club Pro
    Aproveite o Cifra Club com benefícios exclusivos e sem anúncios
    OK