Cifra Club

A Dona Aranha

Músicas Infantis

Cifra: Principal (violão e guitarra)
Selo Cifra Club: esta cifra foi revisada para atender aos critérios oficiais da nossa Equipe de Qualidade.
tom: D
[Intro] D  A  D
        A  D  A

   D        A     D         A 
E|-2--------------2---------------2-------------------|
B|-3--------------3---------------3-------------------|
G|-2--------------2-----------1h2-2-------------------|
D|-0---4-2--------0---4-2---------0-------------------|
A|----------0-2-0-----------0-------------------------|
E|----------------------------------------------------|

   D     A     
E|-2--------------------------------------------------|
B|-3--------------------------------------------------|
G|-2--------------------------------------------------|
D|-0---2-0-----0--2-2--4-4-5--------------------------|
A|----------------------------------------------------|
E|----------------------------------------------------|

[Primeira Parte]

         D       A          D      
A dona aranha subiu pela parede
 A            D
Veio a chuva forte
A         D
E a derrubou

[Segunda Parte]

G             D/F#
Já passou a chuva
     G             D/F#
E o sol já vai surgindo
D          Em7
E a dona aranha
      A       D
Continua a subir

[Terceira Parte]

A         D      A      D
Ela é teimosa e desobediente
 D           Em7    A             D
Sobe, sobe, sobe e nunca está contente
00:00 / 00:00
Outros vídeos desta música
Repetir
Outros vídeos desta música
425.234 exibições
    • ½ Tom
    • A
    • Bb
    • B
    • C
    • Db
    • D
    • Eb
    • E
    • F
    • F#
    • G
    • Ab
  • Adicionar à lista

Afinação da cifra

Afinador online

    0 comentários

    Ver todos os comentários

    Entre para o Cifra Club PRO

    Tenha acesso a benefícios exclusivos no App e no Site

    • Chega de anúncios

    • Mais recursos no app do Afinador

    • Atendimento Prioritário

    • Aumente seu limite de lista

    • Ajude a produzir mais conteúdo

    00:00 / 00:00

    Cifra Club Pro

    Aproveite o Cifra Club com benefícios exclusivos e sem anúncios
    Cifra Club Pro
    Aproveite o Cifra Club com benefícios exclusivos e sem anúncios
    OK