Cifra Club

Aprenda

Pirulito Que Bate Bate

Músicas Infantis

Cifra: Principal (violão e guitarra)
tom: D
                e|--------------------4-4-|-----------------------------|
                B|----4-5-7-7--7-5-4------|----4-5-5--5-4---7~----------|
                G|------------------------|--6------------6-------------|
                D|------------------------|-----------------------------|
                A|------------------------|-----------------------------|
                E|------------------------|-----------------------------|
               Pirulito que bate bate...   ...pirulito que já bateu...

                e|-------------4-7-6-4-----------------------------|
                B|--4-7-7-7-5-4------------7-5-4-------------------|
                G|-----------------------------6-4~----------------|
                D|-------------------------------------------------|
                A|-------------------------------------------------|
                E|-------------------------------------------------|
              ..quem gosta de mim é ela...quem gosta dela sou eu
Compositor não encontrado.
Colaboração e revisão:
  • William Rizzo
  • Daiane Baroni
70.870 exibições
    • ½ Tom
    • A
    • Bb
    • B
    • C
    • Db
    • D
    • Eb
    • E
    • F
    • F#
    • G
    • Ab
  • Adicionar à lista

    0 comentários

    Ver todos os comentários

    Conseguiu tocar?

    1 Tocaram 1 Ainda não

    Grave um vídeo tocando Pirulito Que Bate Bate e nos envie!

    00:00 / 00:00
    Outros vídeos desta música
    Repetir Qualidade Automático
    Outros vídeos desta música
    00:00 / 00:00
    Automático

    Cifra Club Pro

    Aproveite o Cifra Club com benefícios exclusivos e sem anúncios
    Cifra Club Pro
    Aproveite o Cifra Club com benefícios exclusivos e sem anúncios
    OK