Cifra Club

Aprenda

Car Chase City

Tenacious D

Cifra: Principal (violão e guitarra)
tom: F

E|----------------------------------------------------------------------------------|
B|---10--8---------------------------------- 10--8----------------------------------|
G|---9---7-----5-7---------------------------9---7-----5-7--------------------------|
D|---7---5-----5-7---------------------------7---5-----5-7--------------------------|
A|-------------3-5----5-6-5-3-5-3----------------------3-5----5-6-5-3-5-3-----------|
E|--------------------------------3-5-------------------------------------3-5-------|

E|--------------------------------------------------------------|
B|--------------------------------------------------------------|
G|--------------------------------------------------------------|
D|--------------------------------------------------------------|
A|---------------5-------------------------------5--------------|
E|-5---5---8-5-5---5-5-8-5-5-0-3---5---5-5-8-5-5---5-5-8--------|

E|--------------------------------------------------------------|
B|--------------------------------------------------------------|
G|--------------------------------------------------------------|
D|---------------2-------------------------------2--------------|
A|-2---2-2-5-2-2---2-2-5-2-2---0---2---2-2-5-2-2---2-2-5--------|
E|---------------------------0----------------------------------|
Composição de John Konesky / John Spiker / Kyle Gass
Colaboração e revisão:
  • Cássio Cunha
5.307 exibições
    • ½ Tom
    • A
    • Bb
    • B
    • C
    • Db
    • D
    • Eb
    • E
    • F
    • F#
    • G
    • Ab
  • Adicionar à lista

    0 comentários

    Ver todos os comentários
    00:00 / 00:00
    Outros vídeos desta música
    Repetir Qualidade Automático
    Outros vídeos desta música
    00:00 / 00:00
    Automático

    Cifra Club Pro

    Aproveite o Cifra Club com benefícios exclusivos e sem anúncios
    Cifra Club Pro
    Aproveite o Cifra Club com benefícios exclusivos e sem anúncios
    OK