Cifra Club

Dude I Totally Miss You

Tenacious D

Cifra: Principal
exibições 88.698
Tom: G
Intro: Em  D/F#  C  Em  Em  D/F#  B7  Em  Em  D/F#  C  Em  C  D/F#  B7

Em              D/F#         C
Dude I totally miss you,
                 Em
I really fucking miss you,
Em       D/F#
I'm all alone,
         B7
All the time,
        Em
All the time,

Em             D/F#         C
Dude I totally miss you,
                   Em
The things we do together,
C      D/F#        B7
Where have you gone?

C                 D/F#
Totally miss the honesty,
   Em                Em         C
And special times and honestly,
                  D/F#                     B7
I totally miss the fucked up things you do,

Em              D/F#         C
Dude I totally miss you,
          D/F#
I totally miss you,
Em              C
Dude I totally miss you,
        B7
All the time,

Solo: Em  D/F#  C  Em  Em  D/F#  B7  Em  Em  D/F#  C  Em  C  D/F#  B7

C                D/F#
Totally miss the honesty,
   Em                Em         C
And special times and honestly,
                 D/F#                    B7
I totally miss the fucked up things you do,

Em              D/F#         C
Dude I totally miss you,
          D/F#
I totally miss you,
Em              D/F#
Dude I totally miss you,
        B7
All the time,

     (descendo a partir da 5ª corda) (descida rápida)[finaliza]
          B7                            Em
All the time
Solo 1:
E|----------14h15p14p12h14b--12-10-12-----------------------------------------------------------|
B|-0h12-12~-----------------------------12-12----12-0--12-0--12-10-0--10-0--10---7--7/8---------|
G|--------------------------------------11h12----12-12-12-12-12-11-11-11-11-11---8--8/9---------|
D|----------------------------------------------------------------------------------------------|
A|----------------------------------------------------------------------------------------------|
E|----------------------------------------------------------------------------------------------|

E|----------------------------------------------------------------------------------------------|
B|--------10b-----------------13-12-10-/12~----------------7-10-12/13\12------------------------|
G|--9h12-------12p9--12p11p9------------------9-11-12b-9-8------11-11-11------------------------|
D|----------------------------------------------------------------------------------------------|
A|----------------------------------------------------------------------------------------------|
E|----------------------------------------------------------------------------------------------|

Solo 2:
E|----------------------------------------------------------------------------------------------|
B|--------------12p10-------10-10-10h12---------------------------------------------------------|
G|--/12--9-11-12-----11----------------11h12p11-9-----------------------------------------------|
D|-----------------------------------------------------12-9-12-9-12/14--------------------------|
A|----------------------------------------------------------------------14p12p10-12p10h12b------|
E|----------------------------------------------------------------------------------------------|

E|----------------------------------10---12-----------------------------------------------------|
B|--8-10-10-8-10b-----------10-10b~---10---12---------------------------------------------------|
G|--------------------/9-12---------------------14-14p12p9-12-12h14-12--------------------------|
D|----------------------------------------------------------------------------------------------|
A|----------------------------------------------------------------------------------------------|
E|----------------------------------------------------------------------------------------------|

E|-------------------------------12-------------------------------------------------------------|
B|-----------------------12h15p12---------------------------------------------------------------|
G|------------------12h14----------14p12--------------------------------------------------------|
D|-------------12h14--------------------14p12---------------------------------------------------|
A|-----10h12h14------------------------------14p12p10--12-12h14~--------------------------------|
E|---12----------------------------------------------12-----------------------------------------|

E|-----------------------------|
B|-----------------------------|
G|--------------0--------------|
D|--------4--------4-----4-----|
A|-----2-----2--------2--------|
E|--0-----------------------0--|
Acordes para:

    0 comentários

      mostrar mais comentários

      Conseguiu tocar?

      36tocaram0ainda não

      Grave um vídeo tocando Dude I Totally Miss You e mande pra gente!

      00:00 / 00:00
      outros vídeos desta música
      repetirqualidadeautomática
      Outro vídeos desta música
        00:00 / 00:00
        automática
        OK