Cifra Club

Aprenda

Jesus Ranch

Tenacious D

Cifra: Principal (violão e guitarra)
tom: A
    Bm          A4        E           F#
 | -2-2--2------0-0--0------0-0--0------2--0------ |
 | -3-3--2h3----3-3--3p2----0-0--0------2--0------ |
 | -4-4--4------2-2--2------1-1--0h1----3--3------ |
 | -4-4--4------2-2--2------2-2--2------4--4------ |
 | -2-2--2------0-0--0------2-2--2------4--4------ |
 | -------------------------0-0-0-------2--0------ |


Bm     A4      E      F#    Bm      A4    E     F#
    It was a big day on Jesus Ranch.  Jesus Ranch
Bm            A4          E     F#             Bm   A4    E    F#
  He was harvesting a big tomato,  it was in the sand,  all right
D                               A4       E
  I?m takin a walk in the woods,  and it's nice outside
Bm
  Smells of shit  Liggagwing gigigigigillgo
A4                  E           F#
 I come upon a silver striped mushroom and I
Bm      A4    E        F#
 Flalalalalylaiii  And I fly fly
Bm     A4      E      F#    Bm     A4   E     F#
    It was a big day on Jesus Ranch   Jesus Ranch    Jesus
Bm          A4                E
  I fell in love with a baked potato
F#                         Bm         A4      E
  That?s when i started to dance yeah   in France
D                                   A4      E
I'm takin a walk in the woods  Fuck yeah It?s nice very, very
Bm
nice. Smells of shit  Liggagwing gigigigigillgo
A                     E           F#
I come upon a silver, striped mushroom   and I
Bm      A4    E        F#
 Flalalalalylaiii  And I fly fly
Bm      A4    E        F#
 Flalalalalylaiii  And I fly I?m
Bm
Gooooooooooooooone

   Bm           A                 E                 F#
 | -7-10-10-10-10-7-10^-7---7--7-7-7-7-7-7-7-10-7-10-7---12^--10- |
 | -------------------------------------------------------------- |
 | -------------------------------------------------------------- |
 | -------------------------------------------------------------- |
 | -------------------------------------------------------------- |
 | -------------------------------------------------------------- |

Bm             A4    E                  F#         Bm
Ah fricka dooo gadooo  Ricka dicka deudoo     raregadong
A4         E      F#
    Geegone agagon     yeah



************************************

 |  /   slide up
 |  \   slide down
 |  h   hammer-on
 |  p   pull-off
 |  ~   vibrato
 |  +   harmonic
 |  x   Mute note
 |  b   Bend
 |  pb  Pre-bend
 |  br  Bend release
 |  pbr Pre-bend release
 |  brb Bend release bend

************************************
Composição de Jack Blac & Kyle Gass
Colaboração e revisão:
  • Lucas Marçal
1.914 exibições
    • ½ Tom
    • A
    • Bb
    • B
    • C
    • Db
    • D
    • Eb
    • E
    • F
    • F#
    • G
    • Ab
  • Adicionar à lista

    0 comentários

    Ver todos os comentários
    00:00 / 00:00
    Outros vídeos desta música
    Repetir Qualidade Automático
    Outros vídeos desta música
    00:00 / 00:00
    Automático

    Cifra Club Pro

    Aproveite o Cifra Club com benefícios exclusivos e sem anúncios
    Cifra Club Pro
    Aproveite o Cifra Club com benefícios exclusivos e sem anúncios
    OK