Cifra Club

Master Exploder

Tenacious D

Cifra: Principal
exibições 153.260
Tom: E
Intro-Base(Violão):

 Em


E|---0-0-0-0-0-0-0--| (7x)
B|---0-0-0-0-0-0-0--|
G|---0-0-0-0-0-0-0--|
D|---2-2-2-2-2-2-2--|
A|---2-2-2-2-2-2-2--|
E|---0-0-0-0-0-0-0--|


 Em        G     D A A# B


E|0-0-0-0-------x--------|
B|0-0-0-0-------x--------|
G|9-9-9-9-------x-7------|
D|9-9-9-9---5-5-x-7-7-8-9|
A|7-7-7-7---5-5-x-5-7-8-9|
E|0-0-0-0---3-3-x---5-6-7|

Intro-Solo(Guitarra 1):

E|-----12----------12-------------------------------12-10-----10----|
B|-12b----12b--12-----10p8---10b12r10-10-8---8-10b---------12----12-|
G|-------------------------9---------------9------------------------|
D|------------------------------------------------------------------|
A|------------------------------------------------------------------|
E|------------------------------------------------------------------|

E|-----12------12-------------15-17-15----17----15-17-15----17----15-17-15----|
B|-12b-----12--------10p-8-------------17----17----------17----17----------17-|
G|-------------------------9--------------------------------------------------|
D|----------------------------------------------------------------------------|
A|----------------------------------------------------------------------------|
E|----------------------------------------------------------------------------|

E|-----------15----------14----------15----------17----------15---------------------------|
B|-15b----17----17-15-17----17-15-17----17-15-17----17-15-17----17-15-17-15---------------|
G|--------------------------------------------------------------------------16-15---------|
D|--------------------------------------------------------------------------------17/---x-|
A|----------------------------------------------------------------------------------------|
E|----------------------------------------------------------------------------------------|

Verso e Refrão :

E|---0-0-0-0-0-0-0--|  (7x)
B|---0-0-0-0-0-0-0--|
G|---0-0-0-0-0-0-0--|
D|---2-2-2-2-2-2-2--|
A|---2-2-2-2-2-2-2--|
E|---0-0-0-0-0-0-0--|

E|0-0-0-0-------x--------|
B|0-0-0-0-------x--------|
G|9-9-9-9-------x-7------|
D|9-9-9-9---5-5-x-7-7-8-9|
A|7-7-7-7---5-5-x-5-7-8-9|
E|0-0-0-0---3-3-x---5-6-7|

Solo 2: (Gtr 1):

E|-----------------------------------------------------------------------------------------------------------|
B|-------------7-----------8-----------10-----------------12-------------14-----------------15------17~~~~~--|
G|--/---7---7----7-7/9--9----9--11--11-----11--11/12--12------12--14--14-----14--14/16--16------16-----------|
D|-----------------------------------------------------------------------------------------------------------|
A|-----------------------------------------------------------------------------------------------------------|
E|-----------------------------------------------------------------------------------------------------------|

E|---------------------------------------|
B|-8-7-5----7-5-----5--------------------|
G|-------7------7-5---7-5-4-7-5-4---7~~~-|
D|--------------------------------7------|
A|---------------------------------------|
E|---------------------------------------|

(Guitarra 2):



E|------------------------------------------------------------------------------------------------------------|
B|------------------------------------------------------------------------------------------------------------|
G|-------------7------------9-----------11-----------------12-------------14-----------------16------17~~~~~--|
D|--/---9---9----9-9/11--11---9--12--12-----12--12/14--14------14--16--16-----16--16/17--17------17-----------|
A|------------------------------------------------------------------------------------------------------------|
E|------------------------------------------------------------------------------------------------------------|

E|---------------------------------------|
B|---------------------------------------|
G|-8-7-5----7-5-----5--------------------|
D|-------8------8-5---8-6-5-8-6-5---8~~~-|
A|--------------------------------8------|
E|---------------------------------------|

Base do Verso 2-(Guitarra 2 e 3):

  E5       G5  D5   A5 A#5 B5


E|-------------------------| (7x)
B|-------------------------|
G|--------------x-7--------|
D|9-9-9-9---5-5-x-7-x-7-8-9|
A|7-7-7-7---5-5-x-5-x-7-8-9|
E|0-0-0-0---3-3-----x-5-6-7|

Refrão 2 :

Repete o Verso

Verso 2


Solo 3 (Guitarra 2) :

E|-----12----------12-------------------------------12-10-----10----|
B|-12b----12b--12-----10p8---10b12r10-10-8---8-10b---------12----12-|
G|-------------------------9---------------9------------------------|
D|------------------------------------------------------------------|
A|------------------------------------------------------------------|
E|------------------------------------------------------------------|

E|-----12------12-----------15-17-15----17----15-17-15----17----15-17-15----|
B|-12b-----12-------10p8-------------17----17----------17----17----------17-|
G|------------------------9-------------------------------------------------|
D|--------------------------------------------------------------------------|
A|--------------------------------------------------------------------------|
E|--------------------------------------------------------------------------|

E|-----------15----------14----------15----------17----------15---------------------------|
B|-15b----17----17-15-17----17-15-17----17-15-17----17-15-17----17-15-17-15---------------|
G|--------------------------------------------------------------------------16-15---------|
D|--------------------------------------------------------------------------------17/---x-|
A|----------------------------------------------------------------------------------------|
E|----------------------------------------------------------------------------------------|

(Guitarra 3):

E|-----12----------12-------------------------------12-10-----10----|
B|-12b----12b--12-----10p8---10b12r10-10-8---8-10b---------12----12-|
G|-------------------------9---------------9------------------------|
D|------------------------------------------------------------------|
A|------------------------------------------------------------------|
E|------------------------------------------------------------------|

E|-----12------12--------|
B|-12b-----12-----10p8---|
G|---------------------9-|
D|-----------------------|
A|-----------------------|
E|-----------------------|

E|--15-17-15----17----15-17-15----17----15-17-15----17----|
B|-----------17----17----------17----17----------17----17-|
G|--------------------------------------------------------|
D|--------------------------------------------------------|
A|--------------------------------------------------------|
E|--------------------------------------------------------|




Solo 3-Frases finais(Guitarra3):


(frase 1)

E|-----------------------------------|
B|-----------------------------------|
G|-/11b----11b---11b---11b---11b/9~--|
D|-----------------------------------|
A|-----------------------------------|
E|-----------------------------------|

(frase 2)

E|------------------|
B|12h13p12-13p12----|
G|---------------13-|
D|------------------|
A|------------------|
E|------------------|


Base-Verso 3:

  E5       G5     D5 A5 A#5  B5


E|-------------------------| (7x)
B|-------------------------|
G|--------------x-7--------|
D|9-9-9-9---5-5-x-7-x-7-8-9|
A|7-7-7-7---5-5-x-5-x-7-8-9|
E|0-0-0-0---3-3-----x-5-6-7|

Final:

   E5      B5      D5      A5      C5      G5      G5  F#5 E5

E|-----------------------------------------------------------| (2x)
B|-----------------------------------------------------------|
G|-9-9-9-----------7-7-7-----------5-5-5---------------------|
D|-9-9-9---9-9-9---7-7-7---7-7-7---5-5-5---5-5-5---5---4---2-|
A|-7-7-7---9-9-9---5-5-5---7-7-7---3-3-3---5-5-5---5---4---2-|
E|---------7-7-7-----------5-5-5-----------3-3-3---3---2---0-|
Acordes para:

    0 comentários

      mostrar mais comentários

      Conseguiu tocar?

      15tocaram0ainda não

      Grave um vídeo tocando Master Exploder e mande pra gente!

      00:00 / 00:00
      outros vídeos desta música
      repetirqualidadeautomática
      Outro vídeos desta música
        00:00 / 00:00
        automática
        OK