Notificações Amigos pendentes

      Tenacious D

      Master Exploder

      145.201 exibições
      Tom: E
      
      Intro-Base(Violão):
      
      
       Em
      
      
      
      E|---0-0-0-0-0-0-0--| (7x)
      B|---0-0-0-0-0-0-0--|
      G|---0-0-0-0-0-0-0--|
      D|---2-2-2-2-2-2-2--|
      A|---2-2-2-2-2-2-2--|
      E|---0-0-0-0-0-0-0--|
      
      
      
       Em        G     D A A# B
      
      
      
      E|0-0-0-0-------x--------|
      B|0-0-0-0-------x--------|
      G|9-9-9-9-------x-7------|
      D|9-9-9-9---5-5-x-7-7-8-9|
      A|7-7-7-7---5-5-x-5-7-8-9|
      E|0-0-0-0---3-3-x---5-6-7|
      
      
      Intro-Solo(Guitarra 1):
      
      
      E|-----12----------12-------------------------------12-10-----10----|
      B|-12b----12b--12-----10p8---10b12r10-10-8---8-10b---------12----12-|
      G|-------------------------9---------------9------------------------|
      D|------------------------------------------------------------------|
      A|------------------------------------------------------------------|
      E|------------------------------------------------------------------|
      
      
      E|-----12------12-------------15-17-15----17----15-17-15----17----15-17-15----|
      B|-12b-----12--------10p-8-------------17----17----------17----17----------17-|
      G|-------------------------9--------------------------------------------------|
      D|----------------------------------------------------------------------------|
      A|----------------------------------------------------------------------------|
      E|----------------------------------------------------------------------------|
      
      
      E|-----------15----------14----------15----------17----------15---------------------------|
      B|-15b----17----17-15-17----17-15-17----17-15-17----17-15-17----17-15-17-15---------------|
      G|--------------------------------------------------------------------------16-15---------|
      D|--------------------------------------------------------------------------------17/---x-|
      A|----------------------------------------------------------------------------------------|
      E|----------------------------------------------------------------------------------------|
      
      
      Verso e Refrão :
      
      
      E|---0-0-0-0-0-0-0--|  (7x)
      B|---0-0-0-0-0-0-0--|
      G|---0-0-0-0-0-0-0--|
      D|---2-2-2-2-2-2-2--|
      A|---2-2-2-2-2-2-2--|
      E|---0-0-0-0-0-0-0--|
      
      
      E|0-0-0-0-------x--------|
      B|0-0-0-0-------x--------|
      G|9-9-9-9-------x-7------|
      D|9-9-9-9---5-5-x-7-7-8-9|
      A|7-7-7-7---5-5-x-5-7-8-9|
      E|0-0-0-0---3-3-x---5-6-7|
      
      
      Solo 2: (Gtr 1):
      
      
      E|-----------------------------------------------------------------------------------------------------------|
      B|-------------7-----------8-----------10-----------------12-------------14-----------------15------17~~~~~--|
      G|--/---7---7----7-7/9--9----9--11--11-----11--11/12--12------12--14--14-----14--14/16--16------16-----------|
      D|-----------------------------------------------------------------------------------------------------------|
      A|-----------------------------------------------------------------------------------------------------------|
      E|-----------------------------------------------------------------------------------------------------------|
      
      
      E|---------------------------------------|
      B|-8-7-5----7-5-----5--------------------|
      G|-------7------7-5---7-5-4-7-5-4---7~~~-|
      D|--------------------------------7------|
      A|---------------------------------------|
      E|---------------------------------------|
      
      
      (Guitarra 2):
      
      
      
      
      E|------------------------------------------------------------------------------------------------------------|
      B|------------------------------------------------------------------------------------------------------------|
      G|-------------7------------9-----------11-----------------12-------------14-----------------16------17~~~~~--|
      D|--/---9---9----9-9/11--11---9--12--12-----12--12/14--14------14--16--16-----16--16/17--17------17-----------|
      A|------------------------------------------------------------------------------------------------------------|
      E|------------------------------------------------------------------------------------------------------------|
      
      
      E|---------------------------------------|
      B|---------------------------------------|
      G|-8-7-5----7-5-----5--------------------|
      D|-------8------8-5---8-6-5-8-6-5---8~~~-|
      A|--------------------------------8------|
      E|---------------------------------------|
      
      
      Base do Verso 2-(Guitarra 2 e 3):
      
      
        E5       G5  D5   A5 A#5 B5
      
      
      
      E|-------------------------| (7x)
      B|-------------------------|
      G|--------------x-7--------|
      D|9-9-9-9---5-5-x-7-x-7-8-9|
      A|7-7-7-7---5-5-x-5-x-7-8-9|
      E|0-0-0-0---3-3-----x-5-6-7|
      
      
      Refrão 2 :
      
      Repete o Verso
      
      Verso 2
      
      
      Solo 3 (Guitarra 2) :
      
      
      E|-----12----------12-------------------------------12-10-----10----|
      B|-12b----12b--12-----10p8---10b12r10-10-8---8-10b---------12----12-|
      G|-------------------------9---------------9------------------------|
      D|------------------------------------------------------------------|
      A|------------------------------------------------------------------|
      E|------------------------------------------------------------------|
      
      
      E|-----12------12-----------15-17-15----17----15-17-15----17----15-17-15----|
      B|-12b-----12-------10p8-------------17----17----------17----17----------17-|
      G|------------------------9-------------------------------------------------|
      D|--------------------------------------------------------------------------|
      A|--------------------------------------------------------------------------|
      E|--------------------------------------------------------------------------|
      
      
      E|-----------15----------14----------15----------17----------15---------------------------|
      B|-15b----17----17-15-17----17-15-17----17-15-17----17-15-17----17-15-17-15---------------|
      G|--------------------------------------------------------------------------16-15---------|
      D|--------------------------------------------------------------------------------17/---x-|
      A|----------------------------------------------------------------------------------------|
      E|----------------------------------------------------------------------------------------|
      
      
      (Guitarra 3):
      
      
      E|-----12----------12-------------------------------12-10-----10----|
      B|-12b----12b--12-----10p8---10b12r10-10-8---8-10b---------12----12-|
      G|-------------------------9---------------9------------------------|
      D|------------------------------------------------------------------|
      A|------------------------------------------------------------------|
      E|------------------------------------------------------------------|
      
      
      E|-----12------12--------|
      B|-12b-----12-----10p8---|
      G|---------------------9-|
      D|-----------------------|
      A|-----------------------|
      E|-----------------------|
      
      
      E|--15-17-15----17----15-17-15----17----15-17-15----17----|
      B|-----------17----17----------17----17----------17----17-|
      G|--------------------------------------------------------|
      D|--------------------------------------------------------|
      A|--------------------------------------------------------|
      E|--------------------------------------------------------|
      
      
      
      
      
      Solo 3-Frases finais(Guitarra3):
      
      
      (frase 1)
      
      
      E|-----------------------------------|
      B|-----------------------------------|
      G|-/11b----11b---11b---11b---11b/9~--|
      D|-----------------------------------|
      A|-----------------------------------|
      E|-----------------------------------|
      
      
      (frase 2)
      
      
      E|------------------|
      B|12h13p12-13p12----|
      G|---------------13-|
      D|------------------|
      A|------------------|
      E|------------------|
      
      
      
      Base-Verso 3:
      
        E5       G5     D5 A5 A#5  B5
      
      
      
      E|-------------------------| (7x)
      B|-------------------------|
      G|--------------x-7--------|
      D|9-9-9-9---5-5-x-7-x-7-8-9|
      A|7-7-7-7---5-5-x-5-x-7-8-9|
      E|0-0-0-0---3-3-----x-5-6-7|
      
      
      Final:
      
         E5      B5      D5      A5      C5      G5      G5  F#5 E5
      
      
      E|-----------------------------------------------------------| (2x)
      B|-----------------------------------------------------------|
      G|-9-9-9-----------7-7-7-----------5-5-5---------------------|
      D|-9-9-9---9-9-9---7-7-7---7-7-7---5-5-5---5-5-5---5---4---2-|
      A|-7-7-7---9-9-9---5-5-5---7-7-7---3-3-3---5-5-5---5---4---2-|
      E|---------7-7-7-----------5-5-5-----------3-3-3---3---2---0-|
      
        Composição: Kyle GassColaboração e revisão:
        • Malone
        • Anna Gabriella
        • Razz
        • M1249
        • +3

        Comentários 8

        140 .
        • jeferson39 jeferson39: Em 03/03/2015 10:22

          esse ator é bom cantor kkkkkkkkkkkk sonzeira.

        • leonardoaugusto.xaviercampos leonardoaugusto.xaviercampos: Em 16/11/2013 16:52

          aprendi sapoha aaaaa

        • heroe147 heroe147: Em 06/07/2013 18:53

          cara.. nao acredito que consigo tocar isso!! Eu mesmo me impressionei agoa.. kkkkkkkkkkkkkkkk :O

        • smile.ouvinte smile.ouvinte: Em 20/06/2013 22:12

          queria ver a letra! a letra é que é f0d@ | caiowc: [...] youtube > watch?v=T2cu5x8dx5g

        • danielg3g danielg3g: Em 26/10/2012 20:11

          vc é que não sabe o que o Rock só sabe ouvir funk é nisso que dá

        • rockn_roll rockn_roll: Em 17/07/2012 01:19

          que porra é essa?

        • thewendek thewendek: Em 10/11/2011 16:12

          Porra tinha que ter tambem uma video aula!

          • caiowc caiowc: Em 29/06/2012 22:46

            Muitoo pato velho kkkkk youtube > watch?v=T2cu5x8dx5g

        140 cancelar

        conseguiu tocar?

        • •••
        André Luiz Rodrigues2.501 visualizações
          ver covers de outras músicas »
          0:00 / 0:00

          Capítulos

            1 versão de baixo exibições contribuição e correção
            4 versões de Guitar Proformatodownloadscontribuição
            play/pausefechar subir/descer velocidade
            6ª corda E5ª corda A4ª corda D3ª corda G2ª corda B1ª corda E
              acordes
              publicidade
              fechar
              ok