Cifra Club

Aprenda

Metal Intro

Tenacious D

Cifra: Principal (violão e guitarra)
tom: C
e|-----------------------------------------------------|
B|-----------------------------------------------------| INTRO part1
G|-----------------------------------------------------|
D|-----------------------------------------------------|
A|--------------3-2-0-2-0-2-3-2-3---------------3-2-0-2|
E|0-0-0-3-0-0-0-------------------0-0-0-3-0-0-0--------|

e|---------------------------------------------------------------------|
B|---------------------------------------------------------------------| INTRO part 2
G|---------------------------------------------------------------------|
D|---------------------------------------5-3-2-3-2-0-2-0-2-3-2-0-------|
A|--------------3-2-0-2-0-2-3-2-3--------------------------------------|
E|0-0-0-3-0-0-0-------------------1-1-1--------------------------------|

e|-----------------------------------------------------|
B|-----------------------------------------------------| 
G|-----------------------------------------------------|
D|-----------------------------------------------------|2x
A|-----------------------------------------------------|
E|0-0-0-3-0-0-0----------------------------------------|

e|-----------------------------------------------------|
B|-----------------------------------------------------| 
G|-----------------------------------------------------|
D|2-0-2-0-2-3-2-0-2-0-5-3-2----------------------------|2x
A|-----------------------------------------------------|
E|-----------------------------------------------------|

Compositor não encontrado.
Colaboração e revisão:
  • Felipe
16.347 exibições
    • ½ Tom
    • A
    • Bb
    • B
    • C
    • Db
    • D
    • Eb
    • E
    • F
    • F#
    • G
    • Ab
  • Adicionar à lista

    0 comentários

    Ver todos os comentários
    00:00 / 00:00
    Outros vídeos desta música
    Repetir Qualidade Automático
    Outros vídeos desta música
    00:00 / 00:00
    Automático

    Cifra Club Pro

    Aproveite o Cifra Club com benefícios exclusivos e sem anúncios
    Cifra Club Pro
    Aproveite o Cifra Club com benefícios exclusivos e sem anúncios
    OK