Cifra Club

Quando a Saudade Aperta

Teodoro e Sampaio

Cifra: Principal (violão e guitarra)
tom: F
[Intro] F  Bb  F  C7  
        F  Bb  F  C7  F

         F                 Bb
E|---------------17--17brbr-13------|
B|--10-11-13--13----------------15--|
G|----------------------------------|
D|----------------------------------|
A|----------------------------------|
E|----------------------------------|

         F           C7        F
E|--13-15-13------------------------|
B|-----------13-10-13-11--13-15-13--|
G|----------------------------------|
D|----------------------------------|
A|----------------------------------|
E|----------------------------------|

                    Bb      F
E|------------------------10-8------|
B|--1/6-6--6-8-10--8-6--6-------11--|
G|----------------------------------|
D|----------------------------------|
A|----------------------------------|
E|----------------------------------|

      C7      F
E|----------------------------------|
B|--10-8--10-8-6--------------------|
G|----------------------------------|
D|----------------------------------|
A|----------------------------------|
E|----------------------------------|

       F                    Gm 
Foi tentando arejar minha cabeça
      Bb                      F    
Que joguei tudo pro alto e parti
     Bb                     F   Dm
A saudade de você estava em tu..udo
       Gm                      C7
Que sentindo o peso da barra fugi
      F                         Gm
Fui buscar no campo junto a natureza
    Bb                      F   
Energia para não morrer de amor
      Bb                       F    Dm
Mas estavam lá também suas lembra..anças
      Gm         C7          F 
Que fizeram aumentar a minha dor

      Bb                            Am  
Compreendi que se a paixão aperta o cerco
      Gm            C7           F   F7
Da saudade ninguém consegue esconder
      Bb                        F         Dm
Tirei férias pra tentar te esquecer mas voltei
     Gm           C7      F
Com muito mais saudade de você

( F  Bb  F  C7 )
( F  Bb  F  C7  F )

     F                          Gm
Cavalguei de novo em meu cavalo preto
        Bb                    F     
Mas não vi você em seu cavalo branco
      Bb                      F   Dm
Até a lua ao chegar ficou surpre..esa
      Gm                       C7 
Ao me ver sozinho ali sofrendo tanto
     F                      Gm 
Madrugada me pegou lá na varanda
      Bb                    F  
Onde pensando em você adormeci
        Bb                      F   Dm
Os meus olhos nem olharam as estre..elas
       Gm            C7         F 
Pois a minha estrela não estava ali

      Bb                            Am  
Compreendi que se a paixão aperta o cerco
      Gm            C7           F   
Da saudade ninguém consegue esconder
      Bb                        F         Dm
Tirei férias pra tentar te esquecer mas voltei
     Gm           C7      F    
Com muito mais saudade de você
      Bb                        F         Dm
Tirei férias pra tentar te esquecer mas voltei
     Gm           C7        F  
Com muito mais saudade de você
00:00 / 00:00
Outros vídeos desta música
Repetir
Outros vídeos desta música
Composição de Alcino Alves / Rossi / Vicente P. Machado
Colaboração e revisão:
  • Vinicius Baio
  • Djalma Primo
118.144 exibições
    • ½ Tom
    • A
    • Bb
    • B
    • C
    • Db
    • D
    • Eb
    • E
    • F
    • F#
    • G
    • Ab
  • Adicionar à lista

    0 comentários

    Ver todos os comentários

    Entre para oCifra Club PRO

    Tenha acesso a benefícios exclusivos no App e no Site

    • Chega de anúncios

    • Prioridade de compra em lançamentos

    • Mais recursos no app do Afinador

    • Atendimento Prioritário

    • Descontos nos produtos Cifra Club

    • Ajude a produzir mais conteúdo

    00:00 / 00:00

    Cifra Club Pro

    Aproveite o Cifra Club com benefícios exclusivos e sem anúncios
    Cifra Club Pro
    Aproveite o Cifra Club com benefícios exclusivos e sem anúncios
    OK