Cifra Club

Estava Ali

Terno Rei

Cifra: Principal (violão e guitarra)
Selo Cifra Club: esta cifra foi revisada para atender aos critérios oficiais da nossa Equipe de Qualidade.
tom: D
[Intro] D7M  A7M

E|----------0--0--------2--0----------------|
B|------2---------2--2----------------------|
G|--------2---------------------------------|
D|----0-------------------------------------|
A|------------------------------------------|
E|------------------------------------------|

[Riff]

E|----------0--0--------2--0----------------|
B|------2---------2--2----------------------|
G|--------2---------------------------------|
D|----0-------------------------------------|
A|------------------------------------------|
E|------------------------------------------|

[Primeira Parte]

[Riff]

E|----------0--0--------2--0----------------|
B|------2---------2--2----------------------|
G|--------2---------------------------------|
D|----0-------------------------------------|
A|------------------------------------------|
E|------------------------------------------|

D7M        A7M 
Estava ali sem saber
D7M                        A7M
E quanto mais eu tento eu não sei
D7M         A7M     D7M                    A7M
Fiquei ali procurei alguma outra coisa pra fazer

[Ponte] D7M  A7M

[Segunda Parte]

D7M            A7M
Estava ali sem você
D7M                  A7M
Vou deixar a vida me dizer
D7M
Que eu não sou capaz de ser quem você quer
A7M
E não aguento mais o peso que me traz
D7M
Sentido não faz mais
          A7M
Eu vou me esconder

[Riff]

E|----------0--0--------2--0----------------|
B|------2---------2--2----------------------|
G|--------2---------------------------------|
D|----0-------------------------------------|
A|------------------------------------------|
E|------------------------------------------|
Outros vídeos desta música
    8.344 exibições
      • ½ Tom
      • A
      • Bb
      • B
      • C
      • Db
      • D
      • Eb
      • E
      • F
      • F#
      • G
      • Ab
    • Adicionar à lista

    Afinação da cifra

    Afinador online

      0 comentários

      Ver todos os comentários

      Conseguiu tocar?

      12Tocaram0Ainda não

      Grave um vídeo tocando Estava Ali e nos envie!

      Toque também

      1. Imagem do artista GorduratransVocê Não Sabe Quantas Horas Eu Passei Olhando Pra Você Gorduratrans
      2. Imagem do artista Não Ao Futebol ModernoJaneiro Não Ao Futebol Moderno
      3. Imagem do artista Bona FortunaO Que Você Vê Bona Fortuna
      4. Imagem do artista VolantesMaçã Volantes

      Entre para o Cifra Club PRO

      Tenha acesso a benefícios exclusivos no App e no Site

      • Chega de anúncios

      • Badges exclusivas

      • Mais recursos no app do Afinador

      • Atendimento Prioritário

      • Aumente seu limite de lista

      • Ajude a produzir mais conteúdo

      Cifra Club Pro

      Aproveite o Cifra Club com benefícios exclusivos e sem anúncios
      Cifra Club Pro
      Aproveite o Cifra Club com benefícios exclusivos e sem anúncios
      Ops (: Contenido disponible sólo en portugués.
      OK