Cifra Club

What you give

Tesla

Cifra: Principal (violão e guitarra)
Selo Cifra Club: esta cifra foi revisada para atender aos critérios oficiais da nossa Equipe de Qualidade.
tom: G
Album:psychotic Supper
Transcribed by:Justin Harmon
Email:*

I didn't tab the solo because there's another
Persons tab out there that had it on there if theres
Any mistakes its probably cause i missed typed

Intro/verse:(acoustic)

E|----------------------------------------------------|
B|----------------------------------------------------|
G|--------0--------0---3s2---------0-2-0--------0-----|
D|----0h2------0h2--------------------------0h2-------|
A|----------------------------------------------------|
E|-3--------3------------------1----------1-----------|

E|---------------0--------------------------------------------------|
B|----------3-------3-----------------------------------------------|
G|-----2s4----4--------4s2-0-----------3s2------0--2-0---------0----|
D|----------------------------2--0-------------------------0h2------|
A|------------------------------------------------------------------|
E|--0-------------------------------1-------1------------1----------|

Intro Fills:(electric)

E|-17-------15------------------------|
B|----15s13----13s12------------------|
G|-------------------14b16r14--12~s---|
D|------------------------------------|
A|------------------------------------|
E|------------------------------------|

E|--17s----------------|
B|---------------------|
G|---------------------|
D|-------7p5-----------|
A|---------------------|
E|---------------------|

E|------------------------------|
B|-13h15--13--12h13-------------|
G|-12-----12--12-----14--12-----|
D|-------------------14--12-----|
A|------------------------------|
E|------------------------------|


1St Chorus:(acoustic/clean electric)


   G  D  C  Fmaj7

E|--3--2--0--0-------------------|
B|--3--3--1--1-------------------|
G|--0--2--0--2-------------------|
D|--0--0--2--3-------------------|
A|--2-----3----------------------|
E|--3----------------------------|

G            D                          C
I feel so lonley yet I know I'm not the only one

                   G      D                C
To ever feel this way I love you so much that I

                                 Fmaj7
Think I'm goin' insane I'm goin' crazy

                      C                 Fmaj7
Outta my head goin' crazy outta my head

                                     C
Can't think about nothin' but your good good love


And what you give

2Nd Verse Fill:(electric)

E|------15---------|
B|--15b-----15~----|
G|-----------------|
D|-----------------|
A|-----------------|
E|-----------------|

Bridge:(electric)

G5                 D5             C5
It's not what you got It's what you give

G5                       D5                    C5   
It's ain't the life you choose It's the life you live


2Nd part of bridge:(acoustic/electric fills)

        Fmaj7                C          
Its only what you give only what you give

     Fmaj7                           C         
Only what you give its not what you got but


The life you live


3Rd verse fill:(electric)

E|------------------|
B|----15-15-15~-----|
G|-14b------14~-----|
D|------------------|
A|------------------|
E|------------------|

Outro:(acoustic/clean electric)

Guitar 1
E|-----0-----3p0---------------------------------------|
B|-----1---------1-------------------------------------|
G|---2-------------2---2---2------0--------0-----------|
D|-3------3----------3---3------2------0h2---0h2-------|
A|----------------------------3------3------------3----|
E|-----------------------------------------------------|

Guitar 2
E|-------0---3p0----------------------0-----------------|
B|-----1---------1------------------1----1--------------|
G|---2-------------2----2---------0--------0------------|
D|-3-----------------3----------2------------2----------|
A|----------------------------3-------------------------|
E|------------------------------------------------------|

For the electric guitar that fades in
During the outro

E|--------|
B|--------|
G|-10s----|
D|-10s----|
A|--------|
E|--------|



[Solo]
Tab 1

E|-------15-17b19--18b20--17r15--15---15-17b19-17b19-|
B|-15h17----------------------------17---------------|
G|---------------------------------------------------|
D|---------------------------------------------------|
A|---------------------------------------------------|
E|---------------------------------------------------|

Tab 2

E|-17b19r17--15--17b19--15~-----------------------15-|
B|--------------------------------12--15--17--17~~---|
G|-------------------------12--14--------------------|
D|---------------------------------------------------|
A|---------------------------------------------------|
E|---------------------------------------------------|

Tab 3

E|--------15-----------------------------------------|
B|-15b17--15b17--15b17--15~-13--15b17--13~-17--13--15|
G|---------------------------------------------------|
D|---------------------------------------------------|
A|---------------------------------------------------|
E|---------------------------------------------------|

Tab 4

E|---------------------------------------------------|
B|-13------------------------------------------------|
G|---14b16r14--12--14b1/2-------------7---7--7h9---12|
D|---------------------------5--5~-7/9--9------------|
A|------------------------5h7------------------------|
E|---------------------------------------------------|

Tab 5

E|----------15---------------------------------------|
B|-------------15---------------------15-------------|
G|-12~-14b16-----16r14--12---12--14b16--16r14--12--14|
D|------------------------14-------------------------|
A|---------------------------------------------------|
E|---------------------------------------------------|

Tab 6

E|---------------------------------------------------|
B|-----------15h17--17/20--22b24--22b24r22--20h22--20|
G|-12--14h16-----------------------------------------|
D|---------------------------------------------------|
A|---------------------------------------------------|
E|---------------------------------------------------|

Tab 7

E|---------------------------------------------------|
B|--17---20~~----------------------------------------|

If something is wrong, sorry :). Luiz Fell
Outros vídeos desta música
    7.229 exibições
      • ½ Tom
      • A
      • Bb
      • B
      • C
      • Db
      • D
      • Eb
      • E
      • F
      • F#
      • G
      • Ab
    • Adicionar à lista

    Afinação da cifra

    Afinador online

      0 comentários

      Ver todos os comentários

      Entre para o Cifra Club PRO

      Tenha acesso a benefícios exclusivos no App e no Site

      • Chega de anúncios

      • Mais recursos no app do Afinador

      • Atendimento Prioritário

      • Aumente seu limite de lista

      • Ajude a produzir mais conteúdo

      Cifra Club Pro

      Aproveite o Cifra Club com benefícios exclusivos e sem anúncios
      Cifra Club Pro
      Aproveite o Cifra Club com benefícios exclusivos e sem anúncios
      OK