Cifra Club

Aprenda

Return To Serenity

Testament

Cifra: Principal (violão e guitarra)
tom: C
(guitar 1)     (guitar 2) 
E|------------|----8---7---5---------12---10--8--------17-----15--12-|
B|------------|------------------------------------------------------|
G|------------|--9---7-----5------12---10-----9-----17-----16-----14-|
D|------2---3-|------------------------------------------------------|
A|--0---------|------------------------------------------------------|
E|------------|------------------------------------------------------|
 
(guitar 1)
E|---------------------------------------|--------------------------|
B|---------------------------------------|--------0-----------------|
G|---------------------------------------|------0---0-------0-------|
D|----2--3-3/5--3-2-3-3--2h3p2-0--2--0---|----2-------2---2---------|
A|-0------------------------------------4|--4-----------3-----2-----|
E|---------------------------------------|----------------------3-2-|
  
(guitar 1) 
E|--------------------------------------------------------------------|
B|--------------------------------------------------------------0-----|
G|------------------------------------------2-------2--2------------2-|
D|------4-------4--------0-------0-------4-------4-----2-----2--------|
A|----2-------2-------2-------2-------5-------5--------0--------------|
E|-0-------0-------3-------3------------------------------------------|
 
E|--------------------10---------------------------------7-----------|
B|-----8-10/12-----------12p10\8------------7h8h10---------10p8------|
G|---9------------------------------------9---------------------9----|
D|-------------------------------------------------------------------|
A|-------------------------------------------------------------------|
E|-------------------------------------------------------------------|

[Solo 1]

E|---------------------------------------------------|
B|----------8---7---------------------------8---8----|
G|-------7----------9--7--9--999-9-9--7--9-----------|
D|/7--9----------------------------------------------|
A|---------------------------------------------------|
E|---------------------------------------------------|
 
E|------------------------------------------------------|
B|-------8---7------7-----------------------------------|
G|----7---------9------10-------------------------------|
D|/9-----------------------10**--10---------------------|
A|--------------------------------------5---------------|
E|-----------------------------------------7--5**--3---0|
 
E|-------7----------10--7-------------------------------|
B|---------8p7------x------8p7------7-----7---9---------|
G|----7---------9---x-----------9------9----------------|
D|/9----------------------------------------------------|
A|------------------------------------------------------|
E|------------------------------------------------------|
 
E|----12--15**-12---10--7-----------------------------------|
B|/15----------------------8**-8----------------------------|
G|---------------------------------9--7--------------------9|
D|---------------------------------------9-7----------7--9--|
A|-------------------------------------------10---10--------|
E|----------------------------------------------------------|
 
E|----------------------------------------------------------0-0---|
B|----------------------------------------------------------0-0--0| (x2)
G|----------------------------------------------------------2-2---|
D|------4--------0--------0--------0------5--7------5--7----2-2---|
A|---2--------2--------2--------2------5---------5----------0-0---|
E|0--------0--------3--------3------------------------------0-0---|
 
E|------5--7---7h10p7--------------5--5---5h7p5-------|
B|5--8----------------8------5--8----------------8--5-|
G|----------------------------------------------------|
D|----------------------------------------------------|
A|----------------------------------------------------|
E|----------------------------------------------------|
Composição de Chuck Billy / Del James / Eric Peterson
7.334 exibições
    • ½ Tom
    • A
    • Bb
    • B
    • C
    • Db
    • D
    • Eb
    • E
    • F
    • F#
    • G
    • Ab
  • Adicionar à lista

    0 comentários

    Ver todos os comentários

    Conseguiu tocar?

    1 Tocaram 0 Ainda não

    Grave um vídeo tocando Return To Serenity e nos envie!

    00:00 / 00:00
    Outros vídeos desta música
    Repetir Qualidade Automático
    Outros vídeos desta música
    00:00 / 00:00
    Automático

    Cifra Club Pro

    Aproveite o Cifra Club com benefícios exclusivos e sem anúncios
    Cifra Club Pro
    Aproveite o Cifra Club com benefícios exclusivos e sem anúncios
    OK