Cifra Club

Aprenda

Arde Outra Vez

Thalles Roberto

Tab de baixo: Principal
[Intro]

E|---------------------------------------------------------------------------------------|
A|---------------------------------------------------------------------------------------| (2x)
D|11---------------------------------------------------9h11p9h11-------------------------|
G|-11h13p11h13p11-13----11h13p11h13-14-13--11--8h9p--------------------------------------|

E|---------------------------------------------------------------------|
A|---------------------------------------------------------------------|
D|---------------------------------4h6p4h6p4h6--4h6p4h6p4h6-7-6-4------|
G|-4h6p4h6p4h6--4h6p4h6p4h6-7-6-4--------------------------------------|

[Refrão]

E|--------------------------------------------------------------------------------|
A|--------------------------------------------------------------------------------|
D|-----------------------------4-0-4-0-4-0-4-0-4-0-4------------------------------|
G|------2-0-2-0-2-0-2-0-2-0-2-----------------------------------------------------|

E|----2-2-2-2----------------------------------|
A|---------------4-4-4-4/11--------------------|
D|---------------------------------------------|
G|----------------------------13---9h11---9/8--|

[Pre-Refrão]

E|------5---------4--------2---------2--4-----------|
A|----------7--------6--------4------------1--2/6---|
D|-----------7--------6--------4--------------------|
G|--------------------------------------------------|

[Refrão]

E|-2-2-2-2-2-2-----3--6-------------|---------------------2-2-2-2-2-2-|
A|----------------------4-4-4-4-4-4-|-4-4-4-4-4-4----2--4-------------|
D|----------------------------------|---------------------------------|
G|----------------------------------|---------------------------------|
Composição de Thalles Roberto
Colaboração e revisão:
59.363 exibições

0 comentários

Ver todos os comentários
00:00 / 00:00
Outros vídeos desta música
Repetir Qualidade Automático
Outros vídeos desta música
00:00 / 00:00
Automático

Cifra Club Pro

Aproveite o Cifra Club com benefícios exclusivos e sem anúncios
Cifra Club Pro
Aproveite o Cifra Club com benefícios exclusivos e sem anúncios
OK