Cifra Club

Arde Outra Vez

Thalles Roberto

Tab de baixo: Principal
exibições 54.670
tom:F#m7
afinação: standard(padrão)-E-A-D-G-B-E
OBS: Reparem q a tablatura esta invertida,pos na maioria dos casos ela é escrita de baixo(corda mais grave) para  cima(corda mais aguda) ,e da esquerda(do leitor),pra a direita.
OBS2: Pensem nessa tab como um braço de contra baixo para canhotos e vcs conseguiram tocar.
OBS3: o nosso amigo(oque fez a tab aki no CC) só estava querendo ajudar,então não o julgue.

INTRO
G|-11h13p11h13p11-13----11h13p11h13-14-13--11--8h9p--------------------------------------|
D|11---------------------------------------------------9h11p9h11-------------------------|
A|---------------------------------------------------------------------------------------|X2
E|---------------------------------------------------------------------------------------|

"ESPIRITO SANTO"
G|-4h6p4h6p4h6--4h6p4h6p4h6-7-6-4--------------------------------------|
D|---------------------------------4h6p4h6p4h6--4h6p4h6p4h6-7-6-4------|
A|---------------------------------------------------------------------|
E|---------------------------------------------------------------------|

Refrão
G|------2-0-2-0-2-0-2-0-2-0-2-----------------------------------------------------|
D|-----------------------------4-0-4-0-4-0-4-0-4-0-4------------------------------|
A|--------------------------------------------------------------------------------|
E|--------------------------------------------------------------------------------|




Para o pessoal que reclama, pensem que ele tentou ajudar todos aqui, procurem ser "criativos" e procure seguir pela cifra também (A forma que eu costumo fazer pra preencher a música)
Não faça conforme está aqui, escute o tempo da música que dá pra entender.

G|----------------------------13---9h11---9/8--|
D|---------------------------------------------|
A|---------------4-4-4-4/11--------------------|
E|----2-2-2-2----------------------------------|

Pre refrão:

G|--------------------------------------------------|
D|-----------7--------6--------4--------------------|
A|----------7--------6--------4------------1--2/6---|
E|------5---------4--------2---------2--4-----------|

Refrão
(aqui ao invés de fazer com a nota solta, aqui fica legal da uma "abafadinha" na nota)

G|----------------------------------|---------------------------------|
D|----------------------------------|---------------------------------|
A|----------------------4-4-4-4-4-4-|-4-4-4-4-4-4----2--4-------------|
E|-2-2-2-2-2-2-----3--6-------------|---------------------2-2-2-2-2-2-|
Colaboração e revisão:

0 comentários

    mostrar mais comentários

    Conseguiu tocar?

    9tocaram2ainda não

    Grave um vídeo tocando Arde Outra Vez e mande pra gente!

    00:00 / 00:00
    outros vídeos desta música
    repetirqualidadeautomática
    Outro vídeos desta música
      00:00 / 00:00
      automática
      OK