Cifra Club

Deus da Minha Vida

Thalles Roberto

Cifra: Guitarra (violão e guitarra)
exibições 104.308
Tom: F
Introdução:

(Guitarra Riff)

E|-----------------------------------------------------|
B|-----------------------------------------------------|
G|------5b-------------5---x-3---2---------------------|
D|----7------7b----------------------------------------|
A|-/5-------------5------------------------------------|
E|-----------------------------------------------------|

E|-----------------------------------------------------|
B|-----------------------------------------------------|
G|------5b-------------5-5-x-3-x-2---------------------|
D|----7------7b----------------------------------------|
A|-/5-------------5------------------------------------|
E|-----------------------------------------------------|

E|-----------------------------------------------------|
B|-----------------------------------------------------|
G|------5b-------------5---x-3---2---------------------|
D|----7------7b----------------------------------------|
A|-/5-------------5------------------------------------|
E|-----------------------------------------------------|

E|-----------------------------------------------------|
B|-----------------------------------------------------|
G|------5b---------------------------------------------|
D|----7------7b----------------------------------------|
A|-/5-------------5------------------------------------|
E|-----------------------------------------------------|

(Guitarra Base)

E|-----------------------------------------------------|
B|-----------5--6--6-----------------------------------|
G|-----------5--5--5-----------------------------------|
D|-----------------------------------------------------|
A|-----------------------------------------------------|
E|-----------------------------------------------------|

E|-----------------------------------------------------|
B|-----------5--6--6-----------------------------------|
G|-----------5--5--5-----------------------------------|
D|-----------------------------------------------------|
A|-----------------------------------------------------|
E|-----------------------------------------------------|

E|-----------------------------------------------------|
B|-----------5--6--6----8--6--5--5---------------------|
G|-----------5--5--5----5--5--5--5---------------------|
D|-----------------------------------------------------|
A|-----------------------------------------------------|
E|-----------------------------------------------------|

E|-----------------------------------------------------|
B|-----------5--6--6-----------------------------------|
G|-----------5--5--5-----------------------------------|
D|-----------------------------------------------------|
A|-----------------------------------------------------|
E|-----------------------------------------------------|


Primeira Parte:

(Guitarra Base)

E|-----------------------------------------------------|
B|-5h6p5h6----5--6-------------------------------------|
G|-5----------5--5-------------------------------------|  (3x)
D|-----------------------------------------------------|
A|-----------------------------------------------------|
E|-----------------------------------------------------|

E|-----------------------------------------------------|
B|-5h6p5h6----5--6--6----------------------------------|
G|-5----------5--5--5----------------------------------|
D|------------------5----------------------------------|
A|-----------------------------------------------------|
E|------------------6----------------------------------|

Deus meu
Pai meu
Amor meu
Tudo 
Razão de tudo


(Guitarra Riff)

E|-----------------------------------------------------|
B|-----------------------------------------------------|
G|------5b---------------------------------------------|  (4x)
D|----7------7-----------------------------------------|
A|-/5--------------------------------------------------|
E|-----------------------------------------------------|

(Guitarra Base)

E|-----------------------------------------------------|
B|-5h6p5h6---------------------------------------------|
G|-5---------------------------------------------------|  (3x)
D|-----------------------------------------------------|
A|-----------------------------------------------------|
E|-----------------------------------------------------|

E|-----------------------------------------------------|
B|-5h6p5h6----------6----------------------------------|
G|-5----------------5----------------------------------|
D|------------------5----------------------------------|
A|-----------------------------------------------------|
E|------------------6----------------------------------|

Deus meu
Ar meu
Farol 
O Farol que eu preciso 
Como eu preciso


Pré-Refrão:

     D5     C5             G5
Eu preciso Te sentir todo dia
     D5      C5
E olhar pra Tua luz 
         G5
Pra não me perder
        D5     C5              G5
Meu Senhor, Tu és a minha alegria
           Bb5
Que eu preciso


Refrão:

               Bb5
Deus da minha vida
 C5     Dm7
Fica comigo
           Bb5
Sou a sua casa
 C5      Dm7
Mora em mim
               Bb5
Deixa eu te dizer
    C5       Dm7
O que eu preciso, Pai
       Bb5
Eu preciso do Senhor


Interlúdio:

(Violão 1)

E|-1---------------------------------------------------|
B|---1-----------6-------------------------------------|
G|-------3/5-----7-------------------------------------|
D|-----3-------5-7-------------------------------------|
A|-----------3---5-------------------------------------|
E|-----------------------------------------------------|

(Violão 2)

E|-----------------------------------------------------|
B|-----------------------------------------------------|
G|---3---------5---------------------------------------|
D|-----3-----5---5/7-----------------------------------|
A|-1-----1/3-----3/5-----------------------------------|
E|-----------------------------------------------------|

(Guitarra)

E|-----------------------------------------------------|
B|-6-6-6-6-6-6-6-6-6-6-6-6-6-6-6-6---------------------|
G|-5-5-5-5-5-5-5-5-5-5-5-5-5-5-5-5---------------------|
D|-----------------------------------------------------|
A|-----------------------------------------------------|
E|-----------------------------------------------------|


Segunda Parte:

Deus meu
Pai meu
Amor meu
Tudo 
Razão de tudo

Deus meu
Ar meu
Farol 
O Farol que eu preciso 
Como eu preciso


Pré-Refrão:

     D5     C5             G5
Eu preciso Te sentir todo dia
     D5      C5
E olhar pra Tua luz 
         G5
Pra não me perder
        D5     C5              G5
Meu Senhor, Tu és a minha alegria
           Bb5
Que eu preciso


Refrão:

               Bb5
Deus da minha vida
 C5     Dm7
Fica comigo
           Bb5
Sou a sua casa
 C5      Dm7
Mora em mim
               Bb5
Deixa eu te dizer
    C5       Dm7
O que eu preciso, Pai
       Bb5
Eu preciso do Senhor

Deus da minha vida
 C5     Dm7
Fica comigo
           Bb5
Sou a sua casa
 C5      Dm7
Mora em mim
               Bb5
Deixa eu te dizer
    C5       Dm7
O que eu preciso, Pai
       Bb5           C5
Eu preciso do Senhor


Solo: Bb5  C5  D5

E|-----------------------------------------------------|
B|-13h15-13---------10b--------------------------------|
G|-12----12-14-12---10b--------------------------------|
D|----------------x------------------------------------|
A|-----------------------------------------------------|
E|-----------------------------------------------------|

E|-----------------------------------------------------|
B|-----------10-------10b------------------------------|
G|-----------10-------10b-----------------10\9---------|
D|-12p10-12------x-12------12p10-12---/12------10-10/12|
A|-----------------------------------------------------|
E|-----------------------------------------------------|

E|-----------------------------------------------------|
B|-----------------------------------------------------|
G|-------10--10--10--10-10--12p--12br---10----10-------|
D|-10h12-----------------------------------12----12----|
A|-----------------------------------------------------|
E|-----------------------------------------------------|

E|-----------------------------------------------------|
B|-----------------------------------------------------|
G|-12b14r12-10-----------------------------------------|
D|-------------12-11-10--------------------------------|
A|----------------------12-11-10-----------------------|
E|-------------------------------13-10h13--------------|

E|-----------------------------------------------------|
B|----------------------13~---15-----------------------|
G|----------------12h14--------------------------------|
D|-------10h12/15--------------------------------------|
A|-10h12-----------------------------------------------|
E|-----------------------------------------------------|

E|--------------------12--------12--------12-----------|
B|-----------------------------------------------------|
G|-------10----12b14-----12b14-----12b14-----12br------|
D|-10h12----12-----------------------------------------|
A|-----------------------------------------------------|
E|-----------------------------------------------------|

E|-----------------------------------------------------|
B|-----------------------------------------------------|
G|-10----10--------------------------------------------|
D|----12----12~----------------------------------------|
A|-----------------------------------------------------|
E|-----------------------------------------------------|

E|-----------------------------------------------------|
B|-----------------------------------------------------|
G|-----10-----10-----10-----10-----10-----10-----10----|
D|-/12-----12-----12-----12-----12-----12-----12-------|
A|-----------------------------------------------------|
E|-----------------------------------------------------|

E|-----------------------------------------------------|
B|-----------------------------------------------------|
G|----10-----10-----10-----10-----10-------------------|
D|-12-----12-----12-----12-----12----12----------------|
A|-----------------------------------------------------|
E|-----------------------------------------------------|

E|-----------------------------------------------------|
B|-----------------------------------------------------|
G|-------10----10b--12-10-12b14r12--10-----------------|
D|-10h12----12--------------------------12~------------|
A|-----------------------------------------------------|
E|-----------------------------------------------------|

E|-----------------------------------------------------|
B|-------10b----------------------10b------------------|
G|-------10b----------------------10b------------------|
D|-10-12--------12p10-12~---10h12------12p10-12~-------|
A|-----------------------------------------------------|
E|-----------------------------------------------------|

E|-----------------------------------------------------|
B|-------------10--------------------------------------|
G|-------10----10--12-10-12--12~-----------------------|
D|-10h12----12-----------------------------------------|
A|-----------------------------------------------------|
E|-----------------------------------------------------|


Refrão Final:

(Riff do Final)

E|-----------------------------------------------------|
B|-----------------------------------------------------|
G|-7/9--9/10--10\9--5-7~-------------------------------|  (2x)
D|-----------------------------------------------------|
A|-5/7--7/-8---8\7--3-5~-------------------------------|
E|-----------------------------------------------------|

E|-----------------------------------------------------|
B|-----------------------------------------------------|
G|-7/9--9/10--10-12---12-12\10--10-10\9--9\7--7\5--3---|
D|-----------------------------------------------------|
A|-5/7--7/-8---8/10---10-10\-8---8--8\7--7\5--5\3--1---|
E|-----------------------------------------------------|

E|-----------------------------------------------------|
B|-----------------------------------------------------|
G|-7/9--9/10--10\9--5-7~-------------------------------|  (2x)
D|-----------------------------------------------------|
A|-5/7--7/-8---8\7--3-5~-------------------------------|
E|-----------------------------------------------------|

E|-----------------------------------------------------|
B|-----------------------------------------------------|
G|-7/9--9/10--10-12---12-12\10--10-10\9--9\7--7\5--5---|
D|-------------------------------------------------5---|
A|-5/7--7/-8---8/10---10-10\-8---8--8\7--7\5--5\3------|
E|-------------------------------------------------6---|

               Bb5
Deus da minha vida
 C5     Dm7
Fica comigo
           Bb5
Sou a sua casa
 C5      Dm7
Mora em mim
               Bb5
Deixa eu te dizer
    C5       Dm7
O que eu preciso, Pai
   Bb5
Eu     preciso do Senhor

Deus da minha vida
 C5     Dm7
Fica comigo
           Bb5
Sou a sua casa
 C5      Dm7
Mora em mim
               Bb5
Deixa eu te dizer
    C5       Dm7
O que eu preciso, Pai
       Bb5
Eu preciso do Senhor
Acordes para:
    Composição: Thalles Roberto Colaboração e revisão:

    0 comentários

    mostrar mais comentários

    Conseguiu tocar?

    16 tocaram 2 ainda não

    Grave um vídeo tocando Deus da Minha Vida e mande pra gente!

    00:00 / 00:00
    outros vídeos desta música
    repetir qualidade Automático
    Outros vídeos desta música
    00:00 / 00:00
    Automático
    Capítulos
    • Tocando a música
    • Apresentação / Equipamentos
    • Configurações pedais
    • Tocando Introdução
    • Introdução - Guitarra Riff
    • Introdução - Guitarra base
    • Dicas Primeira Parte
    • Tocando Primeira Parte
    • Primeira Estrofe - Guitarra base
    • Segunda Estrofe - Guitarra riff
    • Segunda Estrofe - Guitarra base
    • Acordes Pré-refrão
    • Tocando Pré-refrão
    • Pré-refrão - Guitarra base
    • Acordes Refrão
    • Tocando Refrão
    • Refrão - Guitarra base
    • Dicas Interlúdio
    • Tocando Interlúdio
    • Interlúdio - Violão 1
    • Interlúdio - Violão 2
    • Interlúdio - Guitarra
    • Dicas repetição
    • Tocando Segunda Parte - Solo
    • Solo - Parte 1 de 4
    • Solo - Parte 2 de 4
    • Solo - Parte 3 de 4
    • Solo - Parte 4 de 4
    • Dicas finais
    • Tocando final
    • Riff do final - Parte 1 de 4
    • Riff do final - Parte 2 de 4
    • Riff do final - Parte 3 de 4
    • Riff do final - Parte 4 de 4
    • Encerramento
    OK