Cifra Club

Rumored Nights

The Academy Is...

Cifra: Principal (violão e guitarra)
tom: C
Intro Chords/Tabs:
  Am                      G                    Am               G
e|------------------------------------------------------------------|
B|------------------------------------------------------------------|
G|-------0----------0----------4----------4----------4---------4----|
D|---2-----2----2-----2----5-----5----5-----5----5-----5---5-----5--| 
A|-0---0------0---0------3---3------3---3------5---5-----5---5------|
E|------------------------------------------------------------------|

Am                             G                                 Am
   I walked you home most days   to beat the traffic after class
                            G                                Am
With all my best intentions.   But when the weather changed, 
                                   G
like fine print, you were hard to read.
                              Am Bm5   C5     D5    
Blind-folded, eyes wide open, staring through me.

Pre-Chorus Chords:
F                     G                     C
  I never heard the words that were spoken,
                    G                         F
With the rumored nights, with the rendezvous.
                     G                      Am
I never thought the whispers were true 'til now…

Chorus Chords:
Am      C             Am            G
I saw things that I shouldn’t have tonight, tonight.
Am      C           Am 
I know now what I couldn’t have,
              G               F
I’ve gone too far to turn it back
              Am              G
I’ve gone too far to turn it back

Verse 2: Use verse 1 Chords
Followed you home halfway, over the fence to your backyard,
With all my best intentions.
And through your window frame, outstretched and lying on your bed,
Blind-folded, eyes wide open, staring through me.

Pre-Chorus Chords:
I never heard the words that were spoken,
with the rumored nights, with the rendezvous.
I never look at you like I used to now

Chorus Chords:
I saw things that I shouldn’t have tonight, tonight.
I know now what I couldn’t have,
I’ve gone too far to turn it back
I’ve gone too far to turn it back

Solo: (played over chords of course)
   Am                         C        G
e|----------------------------------------------------------------|
B|--------------1-1-1-1-1-1-1-1-1-1-------------------------------|
G|--4-4-4-2-2-2---------------------0-0-0-0-0---------------------| 
D|--------------------------------------------2-2-0-0-0-0-0-0-0-0-| 
A|----------------------------------------------------------------|
E|----------------------------------------------------------------|

   Am                                  C            G
e|--------------------------------12-12-12-12-10-10-10-10-7-7-3-3-3-3-3-3-|
B|--------------1-1-1-1-1-1-1-1-1-----------------------------------------|
G|--4-4-4-2-2-2-----------------------------------------------------------|
D|------------------------------------------------------------------------| 
A|------------------------------------------------------------------------|
E|------------------------------------------------------------------------|

Bridge:
    C                               G                 F   
Uninvited, no one knows how much I care, how bad you are,
              C
How good we’d be, but you won’t let me in
    G 
Goodnight I’m leaving.

Pre-Chorus Chords:
I never heard the words that were spoken,
with the rumored nights, with the rendezvous.
I never thought the whispers were true 'til now…

Chorus Chords:
I saw things that I shouldn’t have tonight, tonight.
I know now what I couldn’t have,
I’ve gone too far to turn it back
I saw things that I shouldn’t have tonight, tonight.
I know now what I couldn’t have,
I’ve gone too far to turn it back

Outro:
Am               C             Am           G               Am
   I walked you home most days,   I had the best intentions 
              C             Am            G              
I walked you home most days,   I had the best intentions
Am
    I walked you home most days...

(repeat 5x)   Am
e|-------------------|
B|------3---1-3---1--|
G|----2---2-----2----|
D|--2----------------| 
A|-------------------|
E|-------------------|
00:00 / 00:00
Outros vídeos desta música
Repetir
Outros vídeos desta música
Composição de Sam Hollander / The Academy Is...
743 exibições
    • ½ Tom
    • A
    • Bb
    • B
    • C
    • Db
    • D
    • Eb
    • E
    • F
    • F#
    • G
    • Ab
  • Adicionar à lista

    0 comentários

    Ver todos os comentários

    Conseguiu tocar?

    0 Tocaram 0 Ainda não

    Grave um vídeo tocando Rumored Nights e nos envie!

    00:00 / 00:00

    Cifra Club Pro

    Aproveite o Cifra Club com benefícios exclusivos e sem anúncios
    Cifra Club Pro
    Aproveite o Cifra Club com benefícios exclusivos e sem anúncios
    OK