Cifra Club

Oklahoma

The Answering Machine

Cifra: Principal (violão e guitarra)
Selo Cifra Club: esta cifra foi revisada para atender aos critérios oficiais da nossa Equipe de Qualidade.
tom: E
E|-----------------------------------------|
B|--12-12--14-14--12-12-12--14-14-14-14----|
G|--13-13--13-13--13-13-13--13-13-13-13----|
D|--14-14--14-14--14-14-14--14-14-14-14----| x2
A|-----------------------------------------|
E|-----------------------------------------|

E|----------------------------|
B|-5-5--7-7--5-5-5--7-7-7-7---|
G|-6-6--6-6--6-6-6--6-6-6-6---| x2
D|-7-7--7-7--7-7-7--7-7-7-7---|
A|----------------------------|
E|----------------------------|


[Bridge]

E|-7-5~--4-2~------------|
B|-----------------------|
G|-----------------------|
D|-----------------------|
A|-----------------------|
E|-----------------------|


[Chorus]

E|---------------------|
B|---------------------|
G|-9-9-9-9--6-6-6--4---|
D|-9-9-9-9--6-6-6--4---|
A|-7-7-7-7--4-4-4--2---|
E|---------------------|
Outros vídeos desta música
    1 exibições
      • ½ Tom
      • A
      • Bb
      • B
      • C
      • Db
      • D
      • Eb
      • E
      • F
      • F#
      • G
      • Ab
    • Adicionar à lista

    Afinação da cifra

    Afinador online

      0 comentários

      Ver todos os comentários

      Conseguiu tocar?

      0Tocaram0Ainda não

      Grave um vídeo tocando Oklahoma e nos envie!

      Toque também

      1. Imagem do artista Little CometsJennifer Little Comets
      2. Imagem do artista Pull Tiger TailAnimator Intro Pull Tiger Tail
      3. Imagem do artista FlashgunsI Dont Not Love You Flashguns
      4. Imagem do artista Dutch UnclesX-O Dutch Uncles

      Entre para o Cifra Club PRO

      Tenha acesso a benefícios exclusivos no App e no Site

      • Chega de anúncios

      • Badges exclusivas

      • Mais recursos no app do Afinador

      • Atendimento Prioritário

      • Aumente seu limite de lista

      • Ajude a produzir mais conteúdo

      Cifra Club Pro

      Aproveite o Cifra Club com benefícios exclusivos e sem anúncios
      Cifra Club Pro
      Aproveite o Cifra Club com benefícios exclusivos e sem anúncios
      Ops (: Contenido disponible sólo en portugués.
      OK