Cifra Club

Aprenda

Looking Back on Today

The Ataris

Cifra: Principal (violão e guitarra)
tom: E
(Acústica)

Intro: E5, E5/D#, C#5, A5, E5, E5/D#, C#5, B5, A5, Am (Deixe Soar).


E5   E5/D#   C#5          A5
30th of April, seems like yesterday.
          E5    E5/D#       C#5
We bought a house above the ocean
          B5                A5         Am            
Where our kids could laugh and play.

E5           E5/D#      C#5
I called you from Paris
                 A5          E5         E5/D#         C#5
To tell you that I wrote our names on the observation deck
B5      A5          Am
Of the Eiffel Tower.


F#5      A5
Remember those nights,
          C#5    B5                            A5
Playing "Summer wind" on the juke box of the bar we used to go.
F#5                               G#5
We made out in the bathroom and you walked me to my house.
A5                               Am
I tried to convince you not to go home.


  E5          E5/D#                  C#5       B5        A5
If only I had more time, I'd take you where you wanted to go.
E5    E5/D#     C#5     B5        A5   Am
Italy isn't the same without you here.
E5             E5/D#                  C#5         B5                                                
If only I had one wish; I'd want a million trillion lifetimes
A5
That I could spend with you...
E5    E5/D#      C#5  B5         A5   Am 
Fall in love with you again and again.


 E5     E5/D#   C#5   A5 
1st of November, 1998.
      E5         E5/D#     C#5     B5        A5    Am
I was thinking of what to say when I would call.
E5             E5/D#         C#5                      A5
Denise comes over to my house, cuz you're the one for me.
    E5          E5/D#     C#5         B5       A5     Am
We'll drink cheap wine and watch more shooting stars.


F#5                A5  
Remember our first apartment?
C#5           B5                  A5
Our couch was never big enough for two.
F#5                                             G#5
Still, we'd fall asleep in each other's arms and wake up on the floor.
A5                                     Am
Now looking back it was made for me and you.


  E5          E5/D#                  C#5       B5        A5
If only I had more time, I'd take you where you wanted to go.
E5   E5/D#      C#5        B5       A5  Am
Japan is really nice this time of year.
E5             E5/D#                  C#5         B5                                                
If only I had one wish; I'd want a million trillion lifetimes
A5
That I could spend with you...
E5    E5/D#      C#5  B5         A5   Am 
Fall in love with you again and again.


E5            E5/D#                          
If only I had more time...
E5   E5/D#     C#5     B5       A5    Am
England isn't the same without you here
E5             E5/D#                  C#5         B5                                                
If only I had one wish; I'd want a million trillion lifetimes
A5
That I could spend with you...
E5    E5/D#      C#5  B5         A5   Am 
Fall in love with you again and again.

[SOLO]

e|--------------------------------------------------------------------------------
B|-------9--10-12-------1314-12--------------------------------------13-11--------
G|--9----------------8----------------13-14--13--------------11-14---------13-----
D|--------------------------------------------------16--14------------------------
A|--------------------------------------------------------------------------------
E|--------------------------------------------------------------------------------

e|--------------------------------------------------------------------------------
B|--------------------------------------------------------------------------------
G|--------------------------------------------------------------------------------
D|--14--13------------11--9-------------------------------------------------------
A|------------14--11----------11-9---------------11-12-14-------------------------
E|------------------------------------11-12-------------------12------------------

e|-----------------------s14-12---------------------------------------------------
B|--9---9--10-12---------------------17-16-17-19-17-------------------------------
G|------------------8-------------------------------------20--18-16-16------------
D|--------------------------------------------------------------------------------
A|--------------------------------------------------------------------------------
E|--------------------------------------------------------------------------------

e|--------------------------------------------------------------------------------
B|-----------12--12---------------------------------------------------------------
G|--13--14-----------14--13---14--13----------------------------------------------
D|-----------------------------------------14-16--14--13------11------------------
A|--------------------------------------------------------------------------------
E|--------------------------------------------------------------------------------
Composição de Chris Roe
2.696 exibições
    • ½ Tom
    • A
    • Bb
    • B
    • C
    • Db
    • D
    • Eb
    • E
    • F
    • F#
    • G
    • Ab
  • Adicionar à lista

    0 comentários

    Ver todos os comentários

    Conseguiu tocar?

    0 Tocaram 0 Ainda não

    Grave um vídeo tocando Looking Back on Today e nos envie!

    00:00 / 00:00
    Outros vídeos desta música
    Repetir Qualidade Automático
    Outros vídeos desta música
    00:00 / 00:00
    Automático

    Cifra Club Pro

    Aproveite o Cifra Club com benefícios exclusivos e sem anúncios
    Cifra Club Pro
    Aproveite o Cifra Club com benefícios exclusivos e sem anúncios
    OK