Cifra Club

Aprenda

A Hard Day's Night

The Beatles

Cifra: Completa (violão e guitarra)
Tom: G
    D4(7)

 John Lennon         

         G    C     G                    F              G
It's been a hard day's night, and I've been working like a dog,
             G     C     G                   F              G
It's been a hard day's night, I should be sleeping like a log,
            C                            D
But when I get home to you, I find the things that you do,
              G   C  G
Will make me feel alright.
            G   C    G               F                 G
You know I work all day, to get you money to buy you things,
                           C        G                 F             G
And it's worth it just to hear you say, you're gonna give me everything.

          C                                   D
So why on earth should I moan, 'cause when I get you alone,
               G   C  G
You know I'll feel okay.

          Bm   Em                      Bm
When I'm home, everything seems to be right;
          G     Em                     C      D
When I'm home, feeling you holding me tight, tight, yeah.

             G    C     G                    F              G
It's been a hard day's night, and I've been working like a dog,
                  C     G                   F              G
It's been a hard day's night, I should be sleeping like a log,
            C                            D
But when I get home to you, I find the things that you do,
              G   C  G
Will make me feel alright.

Base Solo 2x:G C G F G

          C                                   D
So why on earth should I moan, 'cause when I get you alone,
               G   C  G
You know I'll feel okay.

          Bm   Em                      Bm
When I'm home, everything seems to be right;
          G     Em                     C      D
When I'm home, feeling you holding me tight, tight, yeah.

             G    C     G                    F              G
It's been a hard day's night, and I've been working like a dog,
                  C     G                   F              G
It's been a hard day's night, I should be sleeping like a log,
            C                            D
But when I get home to you, I find the things that you do,
              G   C  G
Will make me feel alright.
                C    G
You know I feel all right,
            G    C  F
You know I feel all right

final:riff


George Harrison


E|-3-----------------------------|
B|-1-----------------------------|
G|-0-----------------------------|
D|-------------------------------|
A|-------------------------------|
E|-------------------------------|
             


        G    C9    G                    F9              G
It's been a hard day's night, and I've been working like a dog,
                  C9    G                   F9              G
It's been a hard day's night, I should be sleeping like a log,
            
E|-------------------------------|
B|-------------------------------|
G|-------------------------------|
D|-------------------------------|
A|-----------2-3---0--3--4--5----|
E|---0---3-----------------------|
                                                            D
But when I get home to you, I find the things that you do,
              G   C9 G
Will make me feel alright.
            G   C9   G               F9                 G
You know I work all day, to get you money to buy you things,
                           C9       G                 F9             G
And it's worth it just to hear you say, you're gonna give me everything.

                                        
E|-------------------------------|
B|-------------------------------|
G|-------------------------------|
D|-------------------------------|
A|-----------2-3---0--3--4--5----|
E|---0---3-----------------------|
                                                            D
So why on earth should I moan, 'cause when I get you alone,
               G   C9 G
You know I'll feel okay.

          Bm         Em                   Bm
When I'm home, everything seems to be right;

E|---2--------|------------------|---2---------------2---------|
B|---2--------|------------------|-------2-------2-------2-----|
G|---4--------|------------------|-----------4-----------------|
D|---4--------|--------2---------|-----------------------------|
A|---1--------|--------2---------|-----------------------------|
E|------------|------------------|-----------------------------|

                   
          G     Em                     C7      C9/D
When I'm home, feeling you holding me tight, tight, yeah.

             G    C9    G                    F9              G
It's been a hard day's night, and I've been working like a dog,
                  C9    G                   F9              G
It's been a hard day's night, I should be sleeping like a log,
            
E|-------------------------------|
B|-------------------------------|
G|-------------------------------|
D|-------------------------------|
A|-----------2-3---0--3--4--5----|
E|---0---3-----------------------|

                                                            D
But when I get home to you, I find the things that you do,
              G   C9 G
Will make me feel alright.

Solo 2x:

E|---------------------------------------------------|
B|--------------------6-----6-----6-----6------------|
G|-------5---5/7--5h7---5h7---5h7---5h7---5p3--------|
D|-5-5-8---8----------------------------------5p3-5--|
A|---------------------------------------------------|
E|---------------------------------------------------|

                                                     C      D
So why on earth should I moan, 'cause when I get you alone,
              
E|-------------------------------|
B|-------------------------------|
G|-------------------------------|
D|-------------------------------|
A|-----------2-3--2--0-----------|
E|---0---3--------------3--------|


          G    G9    G
You know I'll feel okay.

         Bm         Em                   Bm
When I'm home, everything seems to be right;
E|---2--------|------------------|---2---------------2---------|
B|---2--------|------------------|-------2-------2-------2-----|
G|---4--------|------------------|-----------4-----------------|
D|---4--------|--------2---------|-----------------------------|
A|---1--------|--------2---------|-----------------------------|
E|------------|------------------|-----------------------------|

          G     Em                     C7     C9/D
When I'm home, feeling you holding me tight, tight, yeah.

             G    C9    G                    F9              G
It's been a hard day's night, and I've been working like a dog,
                  C9    G                   F9              G
It's been a hard day's night, I should be sleeping like a log,
                                      
E|-------------------------------|
B|-------------------------------|
G|-------------------------------|
D|-------------------------------|
A|-----------2-3---0--3--4--5----|
E|---0---3-----------------------|
                                                           D
But when I get home to you, I find the things that you do,
              G   C9 G
Will make me feel alright.
                C9   G
You know I feel all right,
            G    C9  F9
You know I feel all right

final:

E|3---------------1--------------|
B|----1-------1-------1-------1--|
G|--------2---------------2------|
D|-------------------------------|
A|-------------------------------|
E|-------------------------------|

E|3---------------1--------------|3---------------1-----------1--|
B|----1-------1-------1-------1--|----1-------1-------1----------|
G|--------2---------------2------|--------2---------------2------|
D|-------------------------------|-------------------------------|
A|-------------------------------|-------------------------------|
E|-------------------------------|-------------------------------|

E|3---------------1--------------|3-------------1-------------1--|
B|----1-------1-------1-------1--|----1-------1-------1----------|
G|--------2---------------2------|--------2---------------2------|
D|-------------------------------|-------------------------------|
A|-------------------------------|-------------------------------|
Composição de John Lennon
Colaboração e revisão:
  • Diogenes Pereira
1.755 exibições
    • ½ Tom
    • A
    • Bb
    • B
    • C
    • Db
    • D
    • Eb
    • E
    • F
    • F#
    • G
    • Ab
  • Adicionar à lista

    0 comentários

    Mostrar mais comentários

    Conseguiu tocar?

    0 Tocaram 0 Ainda não

    Grave um vídeo tocando A Hard Day's Night e mande pra gente!

    00:00 / 00:00
    outros vídeos desta música
    repetir qualidade Automático
    Outros vídeos desta música
    00:00 / 00:00
    Automático

    Cifra Club Pro

    Aproveite o Cifra Club com benefícios exclusivos e sem anúncios
    7 dias grátis
    Cifra Club Pro
    Aproveite o Cifra Club com benefícios exclusivos e sem anúncios
    7 dias grátis
    OK