Cifra Club

Aprenda

A Hard Day's Night

The Beatles

Cifra: Original (violão e guitarra)
Tom: C
Intro: G4(7)

             G    C9    G                    F              G
It's been a hard day's night, and I've been working like a dog,
                  C9    G                   F              G
It's been a hard day's night, I should be sleeping like a log,
            C                            D
But when I get home to you, I find the things that you do,
              G   C9 G
Will make me feel alright.
            G   C9   G               F                 G
You know I work all day, to get you money to buy you things,
                           C9       G                 F             G
And it's worth it just to hear you say, you're gonna give me everything.

          C                                   D
So why on earth should I moan, 'cause when I get you alone,
               G   C9 G
You know I'll feel okay.

          Bm   Em                      Bm
When I'm home, everything seems to be right;
          G     Em                     C      D
When I'm home, feeling you holding me tight, tight, yeah.

             G    C9    G                    F              G
It's been a hard day's night, and I've been working like a dog,
                  C9    G                   F              G
It's been a hard day's night, I should be sleeping like a log,
            C                            D
But when I get home to you, I find the things that you do,
              G   C9 G
Will make me feel alright.

Solo 2x:

E|---------------------------------------------------|
B|--------------------6-----6-----6-----6------------|
G|-------5---5/7--5h7---5h7---5h7---5h7---5p3--------|
D|-5-5-8---8----------------------------------5p3-5--|
A|---------------------------------------------------|
E|---------------------------------------------------|

    C                                   D
So why on earth should I moan, 'cause when I get you alone,
               G   C9 G
You know I'll feel okay.

          Bm   Em                      Bm
When I'm home, everything seems to be right;
          G     Em                     C      D
When I'm home, feeling you holding me tight, tight, yeah.

             G    C9    G                    F              G
It's been a hard day's night, and I've been working like a dog,
                  C9    G                   F              G
It's been a hard day's night, I should be sleeping like a log,
            C                            D
But when I get home to you, I find the things that you do,
              G   C9 G
Will make me feel alright.
                C9   G
You know I feel all right,
            G    C9  G4(7)
You know I feel all right

final:

E|3---------------1--------------|
B|----1-------1-------1-------1--|
G|--------2---------------2------|
D|-------------------------------|
A|-------------------------------|
E|-------------------------------|

E|3---------------1--------------|3---------------1-----------1--|
B|----1-------1-------1-------1--|----1-------1-------1----------|
G|--------2---------------2------|--------2---------------2------|
D|-------------------------------|-------------------------------|
A|-------------------------------|-------------------------------|
E|-------------------------------|-------------------------------|

E|3---------------1--------------|3-------------1-------------1--|
B|----1-------1-------1-------1--|----1-------1-------1----------|
G|--------2---------------2------|--------2---------------2------|
D|-------------------------------|-------------------------------|
A|-------------------------------|-------------------------------|
Composição de John Lennon
Colaboração e revisão:
  • Pedro Arantes
  • bob973 ferreira
5.159 exibições
    • ½ Tom
    • A
    • Bb
    • B
    • C
    • Db
    • D
    • Eb
    • E
    • F
    • F#
    • G
    • Ab
  • Adicionar à lista

    0 comentários

    Mostrar mais comentários

    Conseguiu tocar?

    2 Tocaram 0 Ainda não

    Grave um vídeo tocando A Hard Day's Night e mande pra gente!

    00:00 / 00:00
    outros vídeos desta música
    repetir qualidade Automático
    Outros vídeos desta música
    00:00 / 00:00
    Automático

    Cifra Club Pro

    Aproveite o Cifra Club com benefícios exclusivos e sem anúncios
    7 dias grátis
    Cifra Club Pro
    Aproveite o Cifra Club com benefícios exclusivos e sem anúncios
    7 dias grátis
    OK