Cifra Club

Here Comes The Sun

The Beatles

Cifra: Simplificada (violão e guitarra)
tom: G
[Intro] A  D  E
        A  D  E 

A
  Here comes the sun
D7M(9)                 D#º
       Here comes the sun and I say
A
  It's all right

A
  Little darling
             D                E
It's been a long cold lonely winter
A
  Little darling
               D                     E
It feels like years since it's been here

A
  Here comes the sun
D7M(9)                 D#º
       Here comes the sun and I say
A                ( A  E )
  It's all right

E|---------------------------------------------------|
B|-----0-----0-----0-----0---------------------------|
G|---2-----2-----2-----2---2-1-----------------------|
D|-4-----2-----0-----2---------4-2-------------------|
A|---------------------------------------------------|
E|---------------------------------------------------|

A
  Little darling
              D              E
The smiles returning to the faces
A
  Little darling
               D                     E
It seems like years since it's been here

A
  Here comes the sun
D7M(9)                 D#º
       Here comes the sun and I say
A                ( A  E )
  It's all right

E|---------------------------------------------------|
B|-----0-----0-----0-----0---------------------------|
G|---2-----2-----2-----2---2-1-----------------------|
D|-4-----2-----0-----2---------4-2-------------------|
A|---------------------------------------------------|
E|---------------------------------------------------|

( C  G  D  A  E )

 C    G    D            A    E
Sun, sun, sun, here it comes
 C    G    D            A    E
Sun, sun, sun, here it comes
 C    G    D            A    E
Sun, sun, sun, here it comes
 C    G    D            A    E
Sun, sun, sun, here it comes
 C    G    D            A    E
Sun, sun, sun, here it comes

A
  Little darling
            D              E
I feel that ice is slowly melting
A
  Little darling
               D                      E
It seems like years since it's been clear

A
  Here comes the sun
D7M(9)                 D#º
       Here comes the sun and I say
A
  It's all right

A
  Here comes the sun
D7M(9)                 D#º
       Here comes the sun and I say
A
  It's all right

E|---------------------------------------------------|
B|-----0-----0-----0-----0---------------------------|
G|---2-----2-----2-----2---2-1-----------------------|
D|-4-----2-----0-----2---------4-2-------------------|
A|---------------------------------------------------|
E|---------------------------------------------------|

A               
  It's all right

E|---------------------------------------------------|
B|-----0-----0-----0-----0---------------------------|
G|---2-----2-----2-----2---2-1-----------------------|
D|-4-----2-----0-----2---------4-2-------------------|
A|---------------------------------------------------|
E|---------------------------------------------------|

[Final] C  G  D  A
Composição de George Harrison
Colaboração e revisão:
  • Getúlio Vasconcelos
  • Ivaldo Herminio
  • Victor Gawriljuk
133.585 exibições
    • ½ Tom
    • A
    • Bb
    • B
    • C
    • Db
    • D
    • Eb
    • E
    • F
    • F#
    • G
    • Ab
  • Adicionar à lista

    0 comentários

    Ver todos os comentários
    00:00 / 00:00
    Outros vídeos desta música
    Repetir Qualidade Automático
    Outros vídeos desta música
    00:00 / 00:00
    Automático
    Capítulos
    • Início
    • Tocando a Música
    • Acordes Introdução e Primeira Parte
    • Tocando Introdução e Primeira Parte
    • Ensinando Ritmo da Música
    • Ensinando a Passagem
    • Acordes da Ponte
    • Tocando a Ponte
    • Ritmo da Ponte
    • Tocando Final
    • Ritmo Final
    • Encerramento

    Cifra Club Pro

    Aproveite o Cifra Club com benefícios exclusivos e sem anúncios
    Cifra Club Pro
    Aproveite o Cifra Club com benefícios exclusivos e sem anúncios
    OK