Cifra Club

I'm A Loser

The Beatles

Cifra: Principal
exibições 64.334
Tom: C
      Am D           Am D
I'm a loser,   I'm a loser,
        FM7                  D
And I'm not what I appear to be.

G          D         FM7         G
Of all the love I have won or have lost
              D           FM7          G
There is one love I should never have crossed.
           D        FM7        G
She was a girl in a million my friend,
              D              FM7        G
I should have known she would win in the end.

      Am D          Am                 D
I'm a loser, and I lost someone who's near to me
       G  Em          Am             D
I'm a loser, and I'm not what I appear to be.

G            D           FM7      G
Although I laugh and I act like a clown
              D          FM7     G
Beneath this mask I am wearing a frown.
              D            FM7        G
My tears are falling like rain from the sky
           D         FM7      G
Is it for her or myself that I cry

 Am D          Am                 D
I'm a loser, and I lost someone who's near to me
       G  Em          Am             D
I'm a loser, and I'm not what I appear to be

Solo Gaita: G D FM7 G x2

Solo Guitarra: Am D Am D G Em Am D

E|----------------5----------7----------7----------|
B|----------------------5-----------7--------7h9---|
G|-------------------5-----------------------------|
D|-------------------------------7-----------------|
A|------------0------------------------------------|
E|---2--3--4---------------------------------------|

E|----------5---------7----------7-----------------|
B|----------------5----------7---------------------|
G|-----------------------------------7-------------|
D|-------------7------7---7---------------9--------|
A|------0------------------------------------------|
E|-------------------------------------------------|

E|--------6-----6--------0---0--0-------8---5------|
B|---------------------------3--3--------------5---|
G|----0--------------0-----------------------------|
D|-------------------------------------------------|
A|-------------------------------------------------|
E|-------------------------------------------------|

E|--5-----5----5--------|
B|--6-----7----7--------|
G|----------------------|
D|----------------------|
B|----------------------|
E|----------------------|


G           D          FM7        G
What have I done to deserve such a fate,
      D           FM7       G
I realize I have left It too late.
              D            FM7       G
And so It's true pride comes before a Fall,
             D           FM7          G
I'm telling you so that you won't lose all

      Am D          Am                 D
I'm a loser, and I lost someone who's near to me
       G  Em          Am             D
I'm a loser, and I'm not what I appear to be.
Acordes para:

    0 comentários

      mostrar mais comentários

      Conseguiu tocar?

      11tocaram0ainda não

      Grave um vídeo tocando I'm A Loser e mande pra gente!

      00:00 / 00:00
      outros vídeos desta música
      repetirqualidadeautomática
      Outro vídeos desta música
        00:00 / 00:00
        automática
        OK