Cifra Club

Something

The Beatles

Tab de baixo: Principal
[Introdução]

G|----------------------------------------------|
D|----------------------------------------------|
A|----------6\---5\-----------------------------|
E|--1-------------------------------------------|

[Primeira Parte]

G|------5-5-5-5-5-5-----------------------------|
D|---------------------2---3/5--5---5h7-5\2-----|
A|--3----------------------------------------5--|
E|----------------------------------------------|

G|------5-5-5-5-5-------------------------------|
D|------------------------2--3------3h5-3----2--|
A|--3---------------3--5------------------------|
E|----------------------------------------------|

G|-----------7-7-7------------------------------|
D|---------------------4--7--5-5-5/7-7-7-7/9-9--|
A|--5---------------5---------------------------|
E|----------------------------------------------|

[Ponte]

G|------7/9--10-9-------------------------------|
D|--7-------------12-10-9-------5--6-7\---------|
A|------------------------12\------------5---7--|
E|----------------------------------------------|

[Introdução]
  
G|----------------------------------------------|
D|----------------------------------------------|
A|--8------8-7-5---6\---5\----------------------|
E|---------------8------------------------------|

[Segunda Parte]
 
G|----5-5-5-5-5-5-5--5\-------------------------|
D|-----------------------2--3/5-5--5h7-5\2-2----|
A|--3----------------------------------------5--|
E|----------------------------------------------|
 
G|----5-5-5-5-5-5-5-----------------------------|
D|-------------------------2--3--------------2--|
A|--3----------------3--5-----------------------|
E|-------------------------------1-1-1--1-------|

G|----------------------------------------------|
D|----------4--7-------5-5-5-5-5/7-7-7-7-7/9-9--|
A|--5--------------5----------------------------|
E|----------------------------------------------|

[Ponte]
 
G|-------7/9--9h10-9----------------------------|
D|--7-7--------------12-10-9-----5---5-6-7------|
A|---------------------------12\---5-------5-7--|
E|----------------------------------------------|

[Introdução]
  
G|---------------------6---9---6-6-6-6-6-7-8-9--|
D|-------------7-7-7-7---7---7------------------|
A|--8---6\--5-----------------------------------|
E|----------------------------------------------|

[Refrão]

G|------9h11-9-----9h11-9-----9h11-9-----9h11-9-|
D|--7-7/-------6-6/-------4-4/-------2-2/-------|
A|----------------------------------------------|
E|----------------------------------------------|

G|----------------------------------------------|
D|------4-4-5-5-5-5-----------------------------|
A|--5-5-----------------------------------------|
E|--------------------5----4----3----2----1--0--|

G|----------------------------------------------|
D|----------------------------------------------|
A|--0-0--7h9-7------7h9-7------7h9-7------7h9-7-|
E|-------------4-4--------2-2--------0-0--------|

G|----------------------------------------------|
D|------4-4-5-5-5-5-----------------------------|
A|--5-5---------------3----2----0---------------|
E|-----------------------------------3----1--0--|

[Solo]
  
G|-----5-5-5-5-5-5-5-5p0------------------------|
D|------------------------2-3/5-5---5h7-5-------|
A|--3--------------------------------------7-5--|
E|----------------------------------------------|
  
G|----5-5-5-5-5-5-5-5---------------------------|
D|------------------------------3-3-3-3--3-2----|
A|--3-----------------3-1-0------------------3--|
E|--------------------------3-1-----------------|
  
G|----------------------------------------------|
D|---------4-7--------4--5-5-5-5-5/7-7-7-7-7/9--|
A|--5----5------5--7----------------------------|
E|----------------------------------------------|
  
G|---------7/9---9h10-9-------------------------|
D|--7--7----------------12-10-9----9------------|
A|------------------------------12--------------|
E|----------------------------------------------|

G|----------------------------------------------|
D|--------------------------------12\-----------|
A|--12---10------11-12--------------------------|
E|------------10--------10---10-----------------|
 
G|----------------------------------------------|
D|----------------------------------------------|
A|--8-------7-5-----6\---5\---------------------|
E|---------------8------------------------------|

[Terceira Parte]
  
G|--------------------------5-5-5-5-5p0---------|
D|----------------------------------------------|
A|--3/5\3--3---3---3---3------------------------|
E|----------------------------------------------|

G|---------------------5------------------------|
D|--5h7-5----5h7-5----------5h7----5------------|
A|-----------------------------------------7\5--|
E|----------------------------------------------|
  
G|----5-5-5-5-5-5-5-----------------------------|
D|-------------------2--5--2--3--------------2--|
A|--3-------------------------------------------|
E|----------------------------------1-1-1-------|
  
G|---------------7-7--7-------------------------|
D|-----------4-7---------4--5--5-5-5/7-7-7-7/9--|
A|--5------5------------------------------------|
E|----------------------------------------------|

[Ponte]

G|---------7/9---9h10-9-------------------------|
D|--7--7----------------12-10-9----9------------|
A|------------------------------12--------------|
E|----------------------------------------------|

G|----------------------------------------------|
D|--7\------------------------------------------|
A|--------5--0---3--4----5---------7------------|
E|----------------------------------------------|

[Final]

G|-------------------------6-6-6-7-7-7-8-8-9-9--|
D|-------------7-7-7-7-7-7----------------------|
A|--8---6\--5-----------------------------------|
E|----------------------------------------------|

G|-9/10-10-10-10-10-9-7----8\---7\--------------|
D|----------------------10----------------------|
A|------------------------------------3---------|
E|----------------------------------------------|
00:00 / 00:00
Outros vídeos desta música
Repetir
Outros vídeos desta música
Composição de George Harrison
Colaboração e revisão:
  • Samuel Chacon
32.218 exibições

0 comentários

Ver todos os comentários

Entre para oCifra Club PRO

Tenha acesso a benefícios exclusivos no App e no Site

  • Chega de anúncios

  • Prioridade de compra em lançamentos

  • Mais recursos no app do Afinador

  • Atendimento Prioritário

  • Descontos nos produtos Cifra Club

  • Ajude a produzir mais conteúdo

00:00 / 00:00
Capítulos
  • Apresentação
  • Tocando a Música
  • Ensinando Introdução e Primeira Parte
  • Ensinando Primeira Ponte e Introdução
  • Ensinando Segunda Parte
  • Ensinando Segunda Ponte e Introdução
  • Ensinando Refrão
  • Ensinando Solo
  • Ensinando Terceira Parte
  • Ensinando Terceira Ponte e Final
  • Encerramento

Cifra Club Pro

Aproveite o Cifra Club com benefícios exclusivos e sem anúncios
Cifra Club Pro
Aproveite o Cifra Club com benefícios exclusivos e sem anúncios
OK