Cifra Club

Young Blood

The Beatles

Cifra: Principal (violão e guitarra)
exibições 3.482
Tom: A
(intro)

E|------------------------------------|
B|------------------------------------|
E|------------------------------------|
D|------------------------------------|
A|-------0----------------------------|
E|-0-2-4------------------------------|

(riff 2) 
E|------------------------------------|
B|------------------------------------|
E|-1-1-1-1----------------------------|
D|-2-2-2-2----------------------------|
A|-2-2-2-2-------0--------------------|
E|-0-0-0-0-0-2-4----------------------|

A
I saw her standing on the corner (Yip yip boom)

A yellow ribbon in her hair (Yip yip boom)

I couldn't stop myself from calling

Well look a-there, look a-there

Wow look a-there, well look a-there
 D
Hey Young blood
    A
Oh Young blood
 D
Hey Young blood
   E
I can't get you out of my mind

A
I took one look and I was fractured (Yip yip boom)

I tried to walk but I was lame (Yip yip boom)

I tried to talk but I just stuttered

Well what's your name, what's your name

Well what's your name, well what's your name
 D
Hey Young blood
 A
Hey Young blood,
 D
Young blood
   E
I can't get you out of my mind

Db D             Db D
     A crazy stop,     she was the top
G
  I tried to follow her all the way home
B C                 B C
     Things went bad,     I met her dad
       F
He said, "You'd better leave my daughter alone"
E(riff 2)

    A
Well I tried to speak but I just stuttered (Yip yip boom)

I saw the rising of the sun (Yip yip boom)

And all along my heart was falling

While you're the one, you're the one

While you're the one, ah you're the one
 D
Hey Young blood
    A
Oh Young blood
      D
Yeah Young blood
   E
I can't get you out of my mind
      D
Yeah young blood
    A
Oh young blood
      D
Yeah young blood
   E                       A
I can't get you out of my mind
Acordes para:
    Composição: Doc Pomus / Jerry Leiber / Mike StollerColaboração e revisão:
    • Fernando guedes

    0 comentários

      mostrar mais comentários

      Conseguiu tocar?

      0tocaram0ainda não

      Grave um vídeo tocando Young Blood e mande pra gente!

      00:00 / 00:00
      outros vídeos desta música
      repetirqualidadeAutomático
      Outro vídeos desta música
        00:00 / 00:00
        OK